Hole - He Hit Me Chords & Tabs

 

He Hit Me Chords & Tabs

Hole Chords & Tabs

Version: 1 Type: Tab 0 ratings
1 star 2 stars 3 stars 4 stars 5 stars
comments

He Hit Me Tab

   
From nmcevoi@tinet.ie Fri May 16 08:05:13 1997
Date: Thu, 8 May 1997 10:56:25 +0100
From: Niall Mc Evoy 
To: guitar@nevada.edu
Cc: guitar@nevada.edu
Subject: hole-he hit me(and it felt like a kiss)

    [The following text is in the "ISO-8859-1" character set]
    [Your display is set for the "US-ASCII" character set]
    [Some characters may be displayed incorrectly]

HOLE 
he hit me(and it felt like a kiss)
mtv.unplugged
written by carole king

okay, i haven't got this fully figured out but this might give you an idea.
if anyone can do better, please let me know because i love this song.

E--------------------------------------------------------------------------------
B--------------------------------------------------------------------------------
G--------------------------------------------------------------------------------
D---5-5-5-5-5-5-5//7-7-7-7-7-7-7---------------------------------------
A---5-5-5-5-5-5-5//7-7-7-7-7-7-7---------------------------------------
E---3-3-3-3-3-3-3//5-5-5-5-5-5-5---------------------------------------
[ Tab from: http://www.guitartabs.cc/tabs/h/hole/he_hit_me_tab.html ]
repeat this for the intro and most of the verses, sliding from a powerchord
G to an A and then back to a G etc.

verse     Am-C-G 

E-0--0---3---------------------------------------------------------------------------
B-1--1---3--------------------------------------------------------------------------
G-2--0---0-------------------------------------------------------------------------
D-2--2---0-------------------------------------------------------------------------
A-0--3---2---------------------------------------------------------------------------
E-0--0---3--------------------------------------------------------------------------

he hit me and it felt like a kiss
he hit me but it didn't hurt me
he couldn't stand to hear me say
that i'd been with someone new
and when i told him
i had been untrue

he hit me and it felt like a kiss 
he hit me and i knew he loved me
cause if he didn't care for me
i could have never made him mad
he hit me and i was glad

baby won't you stay?
baby won't you stay?

he hit me and it felt like a kiss
he hit me and i knew i loved him
cause when he took me in his arms
with all the tenderness there is
he hit me
he made me his

baby won't you stay.......

nmc.evoy@teinet.ie
Comments