Hole - Gold Dust Woman Chords & Tabs

 

Gold Dust Woman Chords & Tabs

Hole Chords & Tabs

Version: 1 Type: Bass Tab 0 ratings
1 star 2 stars 3 stars 4 stars 5 stars
comments

Gold Dust Woman Bass Tab

   
Gold Dust Woman
Hole (written by Stevie Nicks/Fleetwood Mac)
Tabbed by: C. Mietek (fallensiva@hotmail.com)

Standard tuning


Intro:

g|---------------|
d|---------------|
a|5-5-5-5-5/8-7-5|
e|---------------| x3


g|---------------| g|------------------|
d|---------------| d|------------------|
a|5-5-5-0-1-2-3-3| a|5-5-5-5--1-1-1-1-0|
e|---------------| e|------------------|                      
                         ^x3 (riff a)
[ Tab from: http://www.guitartabs.cc/tabs/h/hole/gold_dust_woman_btab.html ]
g|-----------------|
d|-----------------|
a|5-5-5-5-5/8-8-8-8|
e|-----------------|


verse:
g|-------------------------------------------|
d|-------------------------------------------|
a|5-5-5-------3-3-3-------0-3-4-5-5-1-1-0-5-5|
e|------3-3-3-------3-3-3--------------------|

chorus:

g|------------------------|
d|------------------------|
a|1-1-1-------3-3-3--5-5-5|
e|------3-3-3-------------|   
                        ^x2, play riff a after 2nd time; then back to verse

the rest is pretty much just the same riffs mixed up, listen to song and just play along

Comments