Hole - Dying Chords & Tabs

 

Dying Chords & Tabs

Hole Chords & Tabs

Version: 1 Type: Bass Tab 0 ratings
1 star 2 stars 3 stars 4 stars 5 stars
comments

Dying Bass Tab

				    HOLE
                                   DYING

                                    BASS


                           Transcribed by Vanessa

  remember you promised me...

   1  &  2  &  3  &  4  &  1  &  2  &  3  &  4  &  1  &  2  &  3  &  4  &

  |----------------------|-----------------------|-----------------------|
  |9---------------------|-----------------------|/9---------------------|
  |-----------10---------|-----------------------|------------10---------|
  |-----------------12-10|----------7------------|------------------12-10|

  1  &  2  &  3  &  4  &  1  &  2  &  3  &  4  &  1  &  2  &  3  &  4  &

  |----------------------|-----------------------|-----------------------|
  |----------------------|/9----------10---------|-----------------------|
  |----------------------|-----------------------|-9-12------------------|
  |---------7------------|------------------12-10|-------9--7------------|

  1  &  2  &  3  &  4  &  1  &  2  &  3  &  4  &  1  &  2  &  3  &  4  &

  |----------------------|-----------------------|-----------------------|
  |/9--------------------|-----------------------|-12-12-12-12-11-11-----|
  |------------12-10-----|----------7------------|-----------------------|
  |-----------------12-10|-----------------------|-------------------12--|

   1  &  2  &  3  &  4  &  1  &  2  &  3  &  4  &  1  &  2  &  3  &  4  &

  |----------------------|-----------------------|-----------------------|
  |----------------------|-12-12-12-12-11-11-----|-----------------------|
  |---------10-10-10-10--|-----------------------|---------10-10-10-10---|
  |12-12-12--------------|-------------------12--|12-12-12---------------|

  1 &  2  &  3  &  4  &  1  &  2  &  3  &  4  &  1  &  2  &  3  &  4  &
[ Tab from: http://www.guitartabs.cc/tabs/h/hole/dying_btab.html ]
  |----------------------|-----------------------|----------------------|
  |12-12-12-12-11-11-----|-----------------------|12-12-12-12-11-11-----|
  |----------------------|---------10-10-10-10---|----------------------|
  |------------------12--|12-12-12---------------|------------------12--|

  1 &  2  &  3  &  4  &  1  &  2  &  3  &  4  &  1  &  2  &  3  &  4  &

  |-----------------------|----------------------|----------------------|
  |-----------------------|-9-9-9-9----------12--|----------------------|
  |---------10-10-10-10---|---------10-10-10-----|-9-10-12----12-12-12--|
  |12-12-12---------------|----------------------|----------------------|

  1 &  2  &  3  &  4  &  1  &  2  &  3  &  4  &  1  &  2  &  3  &  4  &

  |----------------------|-----------------------|----------------------|
  |-9-9-9-9----------12--|-----------------------|-9-9-9-9----------12--|
  |---------10-10-10-----|-9-10-12----12-12-12---|---------10-10-10-----|
  |----------------------|-----------------------|----------------------|

  1 &  2  &  3  &  4  &  1  &  2  &  3  &  4  &  1  &  2  &  3  &  4  &

  |----------------------|-----------------------|----------------------|
  |----------------------|-9-9-9-9----------12---|----------------------|
  |-9-10-12----12-12-12--|---------10-10-10------|-9-10-12----12-12-12--|
  |----------------------|-----------------------|----------------------|

  1 &  2  &  3  &  4  &  1  &  2  &  3  &  4  &  1  &  2  &  3  &  4  &

  |----------------------|-----------------------|----------------------|
  |-9-9------------------|-----------------------|-9-9------------------|
  |-----12-12-10-10------|----9-12---------------|-----12-12-10-10------|
  |-----------------12-10|---------10-7-7-7-7----|-----------------12-10|

  1 &  2  &  3  &  4  &  1  &  2  &  3  &  4  &  1  &  2  &  3  &  4  &

  |----------------------|-----------------------|----------------------|
  |----------------------|-9-9-------------------|----------------------|
  |---9-12---------------|-----12-12-10-10---

Comments