Hole - Drag Chords & Tabs

 

Drag Chords & Tabs

Hole Chords & Tabs

Version: 1 Type: Bass Tab 0 ratings
1 star 2 stars 3 stars 4 stars 5 stars
comments

Drag Bass Tab

				    HOLE
                                    DRAG

                                    BASS


                      Transcribed by Sugarless Kisses

    Intro and Verses

    G--------------|--------------|--------------|
    D--------------|--------------|--------------|
    A--------------|--------------|--------------|
    E--6--6--6--6--|--7--7--7--7--|--2--2--2--2--|

    Little interludy bit (no singing)
[ Tab from: http://www.guitartabs.cc/tabs/h/hole/drag_btab.html ]
    G--------------|
    D--------------|
    A--------------|
    E--6--2--5--2--| ETC

    Chorus and ending bit......"I pity everyone alive...."

    Once again this isn't the strumming pattern

    G--------------|--------------|--------------|--------------|
    D--------------|--------------|--------------|--------------|
    A--4--4--4--4--|--------------|--------------|--------------|
    E--------------|--5--5--5--5--|--0--0--0--0--|--2--2--2--2--|

    Not too sure of the ending yet !




Comments