Hole - Doll Parts Chords & Tabs

 

Doll Parts Chords & Tabs

Hole Chords & Tabs

Version: 2 Type: Tab 0 ratings
1 star 2 stars 3 stars 4 stars 5 stars
comments

Doll Parts Tab

   
Year:- 1994
Album:- Live Through This
Tuning:- Standard

Hey. Wow this is such an amazing song, probably one of Courtney's best performances.
So here are the tabs, I'm more or less 100% sure these are right, it sounds right to
me anyway and it's pretty simple to play, just three easy peasy chords all the way
basically.
Have fun!

Verse 1:-
("I am doll eyes..." etc)
   A            Cmaj7         G 
E|----------------------------3---3--3--3------------------------------|
B|--2---2--2--2---------------3---3--3--3------------------------------|
G|--2---2--2--2--------------------------------------------------------|
D|--2---2--2--2--2---2--2--2---------------2---------------------------|
A|---------------3---2--3--3--2---2--2--2--3---------------------------|
e|----------------------------3---3--3--3------------------------------|

Play that twice for first verse and second.


Chorus:-
("Yeah they really want you...") Play twice.
E|--------------------3---3--3--3--3--3--3-----------------------------|
B|--2--2--2-----------3---3--3--3--3--3--3-----------------------------|
G|--2--2--2------------------------------------------------------------|
D|--2--2--2--2--2--2---------------------------------------------------|
A|-----------3--3--3--2---2--2--2--2--2--2-----------------------------|
e|--------------------3---3--3--3--3--3--3-----------------------------|
[ Tab from: http://www.guitartabs.cc/tabs/h/hole/doll_parts_tab_ver_2.html ]
Play that that through each line of the chorus. Line "Some day you will ache like I
ache" when the G is played 6 times on the last chorus randomly progress the G, still
sticking to playing is 6 times before the A chord kicks in. Lol hope that makes sense

Any comments or queries email me (Lauren) at uncool_love@hotmail.com
Cya xx

Lyrics:- 

I am doll eyes, doll mouth, doll legs
I am, doll arms, big veins, dog bait

Yeah they really want you, they really want you they really do
Yeah they really want you, they really want you and I do too

I want to be the girl with the most cake
I love him so much it just turns to hate
I fake it so real I am beyond fake
And some day you will ache like I ache
And some day you will ache like I ache
And some day you will ache like I ache
And some day you will ache like I ache
And some day you will ache like I ache

I am doll parts, bad skin, doll heart
It stands, for knife, for the rest of my life

Yeah they really want you, they really want you they really do
Yeah they really want you, they really want you and I do too

I want to be the girl with the most cake
He only loves those things because he loves to see them break
I fake it so real I am beyond fake
And some day you will ache like I ache
And some day you will ache like I ache
And some day you will ache like I ache
And some day you will ache like I ache
And some day you will ache like I ache
And some day you will ache like I ache
And some day you will ache like I ache
And some day you will ache like I ache
Comments