Hole - Doll Parts Chords & Tabs

 

Doll Parts Chords & Tabs

Hole Chords & Tabs

Version: 3 Type: Chords 0 ratings
1 star 2 stars 3 stars 4 stars 5 stars
comments

Doll Parts Chords

   
#----------------------------------PLEASE NOTE---------------------------------#
#This file is the author's own work and represents their interpretation of the #
#song. You may only use this file for private study, scholarship, or research. #
#------------------------------------------------------------------------------#

Artist: Hole
Song: Doll Parts(album live throug this)
Tabbed by: John Leadman
   


   The Cmaj7 is occasionally played (x320xx) and
   the G is sometimes (3200xx). I think this is sometimes in the
   first verse, but not in the others.
   
   CHORDS:
   
          EADGBE 
   A5    (x022xx)
   Cmaj7 (x3200x) 
   G     (32000x) 
   G*    (3x0033) or (320003) 
   
   
   The chords in the first 2 lines of the verses are
   played something like this:
[ Tab from: http://www.guitartabs.cc/tabs/h/hole/doll_parts_crd_ver_3.html ]
      A5           Cmaj7        G            Cmaj7
   E|----------------------------------------------|
   B|-------------(0)----------(0)----------(0)----|  The notes in ( )
   G|-2------2-2-2-0------0-0---0------0-0---0-----|  are sometimes
   D|-2------2-2-2-2------2-2---0------0-0---2-----|  heard, but not
   A|-0------0-0-0-3------3-3-2-2------2-2---3-----|  always.
   E|---------------------------3------3-3-0-------|
   
   The last 2 lines in each verse are just strummed.


The chords in the chorus are played
   something like this:

       A5      Cmaj7  G                  G*
   E|------------------------------------3-3-3-3-3-3--|
   B|----------0-0-0--0------------------3-3-3-3-3-3--|
   G|--2---2-2-0-0-0--0------------------0-0-0-0-0-0--|
   D|--2---2-2-2-2-2--0------------------0-0-0-0-0-0--|
   A|--0---0-0-3-3-3--2------------------x-x-x-x-x-x--|
   E|-----------------3------------------3-3-3-3-3-3--|
   
   
   
Comments