Hole - Doll Parts Chords & Tabs

 

Doll Parts Chords & Tabs

Hole Chords & Tabs

Version: 2 Type: Bass Tab 0 ratings
1 star 2 stars 3 stars 4 stars 5 stars
comments

Doll Parts Bass Tab

#----------------------------------PLEASE NOTE---------------------------------#
#This file is the author's own work and represents their interpretation of the #
#song. You may only use this file for private study, scholarship, or research. #
#------------------------------------------------------------------------------##
From: letostak@netcom.com (Judy Letostak)
Subject: BTAB Hole "Doll Parts"

Hole "Doll Parts"

Verse

|--------------------|-5------5--5--4--|-----------------|-5------5--5-----|
|----7------7--7--7--|-----------------|-5------5--5-----|--------------7--|
|--------------------|-----------------|--------------7--|--------------7--|
|--------------------|-----------------|-----------------|-----------------|


|---------------------|-5--5--------5-----4--|---------------7-----7-------|
|-7----------7--7--7--|-------5--------5-----|----------5-------5----------|
|--------0------------|----------------------|-----------------------------|
|---------------------|----------------------|-3----3----------------------|

Ending 1

|-5----5--5--5--7--5-----|
|------------------------|
|---------------------7--|
|------------------------|

Ending 2

|--5----5--5--5--7--5--|
|----------------------|
|----------------------|
|----------------------|


Pre-chorus

|------------------------|----------------|--------------------------------|
|------------------------|----------------|--------------------------------|
|--0----0----3--3--2-----|----------------|--------------------------------|
|---------------------3--|----------------|--3--3--3--3--3-----------------|

[ Tab from: http://www.guitartabs.cc/tabs/h/hole/doll_parts_btab_ver_2.html ]
Chorus                          1.2.3              4
                                ---------------  --------------------------
|--------------------|---------|----------------|--------------------------|
|--------------------|---------|----------------|-5--5--5--5--5------------|
|--0--0--3--3--2-----|---------|----------------|--------------------------|
|-----------------3--|---------|-3--3--3--3--3--|--------------------------|


|----------5--5--4------|----------------|---------------------------------|
|-7----7------------5---|----------------|---------------------------------|
|-----------------------|----------------|---------------------------------|
|-----------------------|----------------|---------------------------------|


Outro-chorus

|----------------------|------------|-----------------|---------------------|
|----------------------|------------|-----------------|---------------------|
|--0--0----3--3--2-----|------------|-----------------|--0----0---3--3--2---|
|-------------------3--|------------|--3--3--3--3--3--|-------------------3-|


|-------------------|--------------------------|----------5--5--4----------|
|-------------------|--------------------------|--------------------5------|
|-------------------|--------------------------|--0--0---------------------|
|-3--3--3--3--3--3--|--3--0--0--3--3--0--3--3--|---------------------------|


==========================================================================
h = hammeron                      x = ghost note      
p = pulloff                       % = repeat last bar 
/\ = slide up/down                p.s. = pickscrape   
~ = vibrato                       dive = dive with bar
t = tap


Comments