Hole - Burn Black Chords & Tabs

 

Burn Black Chords & Tabs

Hole Chords & Tabs

Version: 1 Type: Bass Tab 0 ratings
1 star 2 stars 3 stars 4 stars 5 stars
comments

Burn Black Bass Tab

   
				    HOLE
                                 BURN BLACK

                                    Bass


                      Transcribed by Larissa Coolette

    Riff A:

    G---7-7-----------|
    D---5-5-----------|  (2x)
    A-7-----3-4-4-4---|
    E-0---------------|

    Riff B:

    G-------------------|
    D-----5-5-----------|  (4x)
    A-7-7----3-3-4-4----|
    E-------------------|

    Riff C:

    G--------------------------|
    D--------------------------|  (4x)
    A-7-7-7-5-5-5-3-3-3-4-4-4--|
    E--------------------------|

    Riff D:
[ Tab from: http://www.guitartabs.cc/tabs/h/hole/burn_black_btab.html ]
    G--------------------------------------|
    D--------------------------------------|
    A--------------------------------------|
    E-3-3-3-3--3-3-3-3--3-3-3-3--3-3-3-3---|

    Riff E:

    G------------|
    D-3-0-2------|  (4x)
    A-------4-3--|
    E------------|

    Riff F:

    G-------------|
    D-------------|
    A-------------|
    E-2--2-3----- |

    Riff G:

    G------------:|
    D------------:|
    A------------:|
    E--3-2--2-3--:|

    G--------------------------------:|
    D--------------------------------:|
    A--------------------------------:|
    E2-2-2-2-2-2-2-2-3-3-3-3-3-3-3-3-:|

    SONG FORMAT:

    A-B-C-D-E-F-F-F-F--B-C-D-E-F-F-F-F--B-C-D-E-F (8X)
    G (12X)



Comments