Hole - Awful Chords & Tabs

 

Awful Chords & Tabs

Hole Chords & Tabs

Version: 3 Type: Bass Tab

Awful Bass Tab

-------------------------------------------------------------------------------
			     Hole - Awful
-------------------------------------------------------------------------------

Artist: Hole
Song: Awful
Album: Celebrity Skin
Year: 1998
Tabbed By : Sean Walkington
e-mail: seanwalkington2003@hotmail.com

Tuning:

Intro

G|---------------------------------------------------------------------------|
D|---------------------------------------------------------------------------|
A|-0---7-7-7-7-7-0----7-7-7-7-7-0------9------------7------------------------|
E|---------------------------------7-7---7-7-7--5-5---5-5-5------------------|

Verse

G|---------------------------------------------------------------------------|
D|---------------------------------------------------------------------------|
A|-0---7-7-7-7-7-0----7-7-7-7-7-0------9------------7------------------------|
E|---------------------------------7-7---7-7-7--5-5---5-5-5------------------|

Chorus Part 1

G|---------------------------------------------------------------------------|
D|---------------------------------------------------------------------------|
A|-4-4-4-4-4-4----0-0-0-0-0--------------------------------------------------|
E|--------------0------------------------------------------------------------|

Chorus Part 2

G|---------------------------------------------------------------------------|
D|---------------------------------------------------------------------------|
A|-4-4-4-4-4-4---------------------------------------------------------------|
E|--------------7-7-7-7-7-7---5-5-5-5-5-5------------------------------------|

Break
[ Tab from: http://www.guitartabs.cc/tabs/h/hole/awful_btab_ver_3.html ]
G|---------------------------------------------------------------------------|
D|---------------------------------------------------------------------------|
A|-4------------4------------4---------4-4-4-4-4-4---------------------------|
E|-------5-------------5------------5---------------7-7-7-7-7-7--5-5-5-5-5-5-|

Interlude Part 1

G|---------------------------------------------------------------------------|
D|---------------------------------------------------------------------------|
A|-7-7-5-7-5-----7-7-5-7------------9------------7---------------------------|
E|-----------7-----------7-9-7--7-7---7-7-7--5-5---5-5-5---------------------|

Interlude Part 2

G|---------------------------------------------------------------------------|
D|---------------------------------------------------------------------------|
A|-7-7-6-6-4---4-2-2-2-2-0--------9----------------7-------------------------|
E|----------------------------7-7---7-7-7------5-5---5-5-5-------------------|

Outro

G|---------------------------------------------------------------------------|
D|---------------------------------------------------------------------------|
A|-7-------------------------------------------------------------------------|
E|---------------------------------------------------------------------------|

G|---------------------------------------------------------------------------|
D|---------------------------------------------------------------------------|
A|---------------------------------------------------------------------------|
E|---------------------------------------------------------------------------|


Structure

Intro x2
Verse x4
Chorus Part 1 x3
Chorus Part 2 x1
Verse x4
Chorus Part 1 x3
Chorus Part 2 x1
Break x1
Verse x4
Interlude Part 1 x2
Interlude Part 2 x2
Intro x2
Outro x1

===============================================================================