Hole - Awful Chords & Tabs

 

Awful Chords & Tabs

Hole Chords & Tabs

Version: 1 Type: Bass Tab 0 ratings
1 star 2 stars 3 stars 4 stars 5 stars
comments

Awful Bass Tab

SONG: AWFUL	
GROUP: HOLE
AUTHOR: BAZ
Corrections: Alexandre Lima 
In the verse, there are lots of variations, but I didn't
tab them because they are all based on the open E and A
strings used as leading notes. Just in case, take a look
at the bridge 2, where there are simple samples (hey,
this sounds pretty good!)

Intro
  ||2x                                       ||
G:||-----------|------|----------|-----------||
D:||*----------|--O/--|----------|----------*||
A:||*--7-77-77-|--/O--|----------|----------*||
E:||--8--------|------|-7-77-777-|-5-55-555--||

Verse
  ||4x                                      ||
G:||----------|------|----------|-----------||
D:||*---------|--O/--|----------|----------*||
A:||*-7-77-77-|--/O--|----------|----------*||
E:||----------|------|-7-77-777-|-5-55-555--||
[ Tab from: http://www.guitartabs.cc/tabs/h/hole/awful_btab.html ]
Chorus
  ||2x                    ||
G:||----------|-----------||----------|----------|----------|
D:||*---------|----------*||----------|----------|----------|
A:||*-4-44-44-|----------*||-4-44-444-|----------|----------|
E:||----------|-45-55-45--||----------|-7-77-777-|-5-55-555-|

Verse 2:
[REPEAT VERSE]

Chorus 2:
[REPEAT CHORUS]

Bridge 1:
  ||3x                 ||
G:||---------|---------||----------|----------|----------|
D:||*--------|--------*||----------|----------|----------|
A:||*-4--4-4-|--------*||-4-44-444-|----------|----------|
E:||---------|-5--5-5--||----------|-7-77-777-|-5-55-555-|

Verse 3:
[REPEAT VERSE 1]

Bridge 2:
  ||2x                   ||
G:||-----|----|----|-----||
D:||*----|----|----|----*||
A:||*-07-|-07-|-0--|----*||
E:||-----|----|--7-|-05--||

  ||2x                                       ||
G:||----------|---------|---------|----------||
D:||*---------|---------|---------|---------*||
A:||*---7-777-|---5-555-|---------|---------*||
E:||--0-------|-0-------|-0-7-777-|-5-5-555--||

Verse 4:
  ||2x                                      ||
G:||----------|------|----------|-----------||---|
D:||*---------|--O/--|----------|----------*||---|
A:||*-7-77-77-|--/O--|----------|----------*||-7-|
E:||----------|------|-7-77-777-|-5-55-555--||---|

Comments