Hokus Pick - Turn Around In Circles Chords & Tabs

 

Turn Around In Circles Chords & Tabs

Hokus Pick Chords & Tabs

Version: 1 Type: Bass Tab 0 ratings
1 star 2 stars 3 stars 4 stars 5 stars
comments

Turn Around In Circles Bass Tab

Song: Turn Around In Circles
Artist: Hokus Pick
Album: Pick It Up
Tabbed by Stephen Toye (sk8r_ska55@hotmail.com)

Intro, verse, during guitar solo:
-------------------
-------------------
-------------------
-5--5-3--3-2-2-3-5-

Chorus:
----------------------------------------------
----------------------------------------------
----------------------------------------------
-3--3-3--3-3--3--3-3-3-3----5--5-3--3-2-2-3-5-
[ Tab from: http://www.guitartabs.cc/tabs/h/hokus_pick/turn_around_in_circles_btab.html ]
After Guitar Solo:
----------------------------------------------
----------------------------------------------
----------------------------------------------
-3--3-3--3-3--3--3-3-3-3----5----3----2----5--

Part Of 3rd Verse:
------------------------------------------------------|
------------------------------------------------------|
------------------------------------------------------|
-5---------------------------2-3---2-----3----2----3--|
Stop for just a minute; and focus your eyes; and you'll

Comments