Hokus Pick - Simple Song Chords & Tabs

 

Simple Song Chords & Tabs

Hokus Pick Chords & Tabs

Version: 1 Type: Bass Tab 0 ratings
1 star 2 stars 3 stars 4 stars 5 stars
comments

Simple Song Bass Tab

Song: Simple Song
Artist: Hokus Pick
Album: Pick It Up
Tabbed by Stephen Toye (sk8r_ska55@hotmail.com)
1st tabbed by: (unknown)
*correction*

Intro, verse:
------------
------------
-9---7--7-7-
---7--------
[ Tab from: http://www.guitartabs.cc/tabs/h/hokus_pick/simple_song_btab.html ]
Chorus:
-------------------------------------------------------
-------------------------------------------------------
-------------------------------------------------------
-6-6----1-1----7-7----1-1----6-6----1-1----7-7---1-6-0-

Outro:
-----------------------
-----------------------
-9---7--7-7--9---77777-
---7-----------7-------

Comments