Hokus Pick - Faith Hope And Love Chords & Tabs

 

Faith Hope And Love Chords & Tabs

Hokus Pick Chords & Tabs

Version: 1 Type: Bass Tab 0 ratings
1 star 2 stars 3 stars 4 stars 5 stars
comments

Faith Hope And Love Bass Tab

Song: Faith, Hope, & Love
Artist: Hokus Pick
Album: Snappy
corrected by Stephen Toye (sk8r_ska55@hotmail.com)
Orrigionally tabbed by: Stephen Toye

Intro, verse:
G-------------------------------
D-------------0-----------------
A--0--0--0--0--3-0--0--0--0-----
E-3--3--3--3----3--3--3--3--1-2-

Chorus:
G--------------------------------------------------
D--------------------------------0-----------------
A-5-4-2-0--5-4-2-0----0--0--0--0--3-0--0--0--0-----
E--------------------3--3--3--3----3--3--3--3--1-2-
[ Tab from: http://www.guitartabs.cc/tabs/h/hokus_pick/faith_hope_and_love_btab.html ]
Bridge:
G--------------------
D---------------0----
A---0--3-----0-----3-
E-3-------3----------

Outro
G-------------------------------
D-------------0-----------------
A--0--0--0--0--3-0--0--0--0-----
E-3--3--3--3----3--3--3--3--1-2-

G-------------------------------
D-------------0-----------------
A--0--0--0--0--3-0--0--0--0-----
E-3--3--3--3----3--3--3--3--1-2-

G-------------------------
D-------------0-----------
A--0--0--0--0--3--(0)hold-
E-3--3--3--3----3---------

I corrected this because I find it a lot easier on the fingers!

Please e-mail me if corrections needed.  sk8r_ska55@hotmail.com

Comments