Hobo Blues Band - Hangulatban Chords & Tabs

 

Hangulatban Chords & Tabs

Hobo Blues Band Chords & Tabs

Version: 2 Type: Tab 0 ratings
1 star 2 stars 3 stars 4 stars 5 stars
comments

Hangulatban Tab

   
#----------------------------------PLEASE NOTE---------------------------------#
#This file is the author's own work and represents their interpretation of the #
#song. You may only use this file for private study, scholarship, or research. #
#------------------------------------------------------------------------------##
From: h430813@stud.u-szeged.hu
Subject: Hobo Blues Band : Hangulatban

  This is a tale about a girl and a wolf , who want to kiss the girl .
  It plays Hobo Blues Band , the name of the song : Hangulatban

Chord :     C                           F

Bass :

--------------------------------------------------7--8--7------------------|
----------------------7--8--7--------------7--10-----------10--7-----------|
---------------7--10-----------10--7----8----------------------------------|
------------8--------------------------------------------------------------|

Guitar :

---------------------------------------------------------------------------|
---------------1--1------1-----1-----------1--1------1-----1---------------|
---------------0--0------0-----0-----------2--2------2-----2---------------|
------------2---------------2-----------3---------------3------------------|
---------------------------------------------------------------------------|
---------------------------------------------------------------------------|


Chord :     G                             F#     F (2)   Am     C (2)

Bass :

-----------------------9--10--9--------------------------------------|
----------------9--12------------12--9-------------------------------|
------------10-----------------------------9-----8-------0------3----|
---------------------------------------------------------------------|

Guitar :

-------------------------------------------2-----1----------0-----0-|
----------------3--3------3------3---------2-----1----------1-----1-|
----------------4--4------4------4---------3-----2----------2-----0-|
------------5-----------------5------------4-----3----------2-----2-|
---------------------------------------------------------0------3---|
--------------------------------------------------------------------|


Chord :  Dm      G (2)

Bass :

-----------------------------|
---------0-------------------|
-----------------------------|
-----------------3-----------|
[ Tab from: http://www.guitartabs.cc/tabs/h/hobo_blues_band/hangulatban_tab_ver_2.html ]
Guitar :
------------1--------3-------|
------------3--------3-------|
------------2--------0-------|
---------0-----------0-------|
---------------------2-------|
------------------3----------|

       C  C  C

             Tul az operencian tortent az eset

             C

             Kis Piroska nagymamahoz igyekezett

             F

             Kicsi kosaraban , mely a karjan fityeg

             C

             Tojaspotlo , mulakvar es cukorjegyek

             G

             Mindezekbol vitt magaval egy keveset

         F#  F (2)  No chord

             Nagymamajahoz igyekezett


             C

             Szaz veszelyt takar a suru erdo , berek

             C

             Mit tehet egy artatlan , tudatlan gyerek

             F

             Mikor a sors ra egy ilyen nagy bajt uszit

             C

             Kiugrik a farkas , s mondja : Adj egy puszit !

             G

             Pusziert egy gyonyoru uj ruhat veszek

         F#  F (2)   No chord

             S egy szep lakast is berendezek

             C (2) Am  Dm              G (2)

             Usse  ko  ooahh  Gondolja Piros

             C (2) Am  Dm              G (2)

             Usse  ko  ooahh  Habar ez tilos

             C (2) Am  Dm

             Usse  ko  ooahh  Ha nem is csinos

             No chord (Bass play G )

             Nincs aki szememre hanyja , egy a fo , hogy van dohanya

             C (2)   Am  Dm            G (2)

             Jo  leszek  ooahh  Feleli legott

             C (2)   Am  Dm               G (2)

             Jo  leszek  ooahh  Puszit is adok

             C (2)   Am  Dm               G (2)

             Jo  leszek  ooahh  Na de mit kapok

             No chord (Bass play G)

             Ruhat , cipellot , harisnyat es kalapot

             C

             Most a farkas elovett egy csekkfuzetet

             C

             Es a suru puszik kozott egyre csak fizetett

             F

             Addig vett uj ruhat , cipot es kalapot

             C

             Mig a szegeny farkas vegul felfalatott

             G

             Eddig tart a mese kedves , jo publikum

         F#  F (2)

             Itt a vege fuss el vele bum - bu - bu - bumm


             OOOOOOOAAAAAAAHHHHHH !!!!
Comments