Hoax - Find Myself Chords & Tabs

 

Find Myself Chords & Tabs

Hoax Chords & Tabs

Version: 1 Type: Tab 0 ratings
1 star 2 stars 3 stars 4 stars 5 stars
comments

Find Myself Tab

   
Artist: Hoax
Track: Find Myself 
Standard tuning.
Words and music by Alf. W. and Flexos C.
Tabbed by Flexos C. (Lyrics are underneath)

Verse:

e|----------------------|
b|----------------------|  Repeat until end of verse
g|----4--4--4--7--7--7--|
d|----4--4--4--7--7--7--|
a|----2--2--2--5--5--5--|
e|----------------------|
It's always get-ting worse...

Bridge:

Guitar 1 plays verse riff.

Guitar 2:

e|--------------------------------|-----------------------------------|
b|--------------------------------|-----------------------------------|
g|--------------------------------|-----------------------------------|
d|-----------------0--3--5--3--0--|-----------------0--3--5--3--2--0--|
a|-----------0--5-----------------|-----------0--5--------------------|
e|--0--3--5-----------------------|--0--3--5--------------------------|

e|--------------------|--------------------|
b|--------------------|--------------------|
g|--------------------|--------------------|
d|--0--3--5--3--2--0--|--0--3--5--3--2--0--|
a|--------------------|--------------------|
e|--------------------|--------------------|

Chorus:

P.M.------------------------| 
Wanna finally find myself...

A5  G5  F5                 G5
            And pretend evrything's alright...

P.M.---------------------------------|
It all adds up to fucked up health...
[ Tab from: http://www.guitartabs.cc/tabs/h/hoax/find_myself_tab.html ]
A5  G5  F5                   G5
            Always getting in drunken fights.


Verse 2: Verse riff

Bridge, same as first bridge.

Chorus: Chorus riff

Solo:

The solo is played on guitar 2.

e|-------------------0--3--5--3--0--|-----------------0--3--5--6--5--3--|
b|-----------1--4-------------------|-----------1--4--------------------|
g|--0--3--5-------------------------|--0--3--5--------------------------|
d|----------------------------------|-----------------------------------|
a|----------------------------------|-----------------------------------| 
e|----------------------------------|-----------------------------------|

e|-----------------3--5--2--0--|-----------------0--3--5--3--2--0--|
b|-----------1--4--------------|-----------1--4--------------------|
g|--0--3--5--------------------|--0--3--5--------------------------|
d|-----------------------------|-----------------------------------|
a|-----------------------------|-----------------------------------|
e|-----------------------------|-----------------------------------|

Play this riff twice through for the solo.

Verse 3: Same as previous verses

Bridge: same as other bridges

Final chorus: Play the same as before.

e|--------|--------|--------|-------|
b|--------|--------|--------|-------|
g|--------|--------|--------|-------|
d|--7--7--|--------|--7--7--|-------|
a|--7--7--|--------|--7--7--|-------|
e|--5--5--|--------|--5--5--|-------|
           Drinking----------freely!

And thats it!

Any comments or questions fell free to email at feesk8ordie@hotmail.com
Comments