Hives - Walk Idiot Walk Chords & Tabs

 

Walk Idiot Walk Chords & Tabs

Hives Chords & Tabs

Version: 8 Type: Tab 0 ratings
1 star 2 stars 3 stars 4 stars 5 stars
comments

Walk Idiot Walk Tab

   
Artist: The Hives
Song: Walk Idiot Walk
Tabbed By: lyingfromyou118
E-mail: lyingfromyou118@linkinpark.com

This sounds good to me. If you're playing guitar 1 (lead) its best to use 
more treble and just a little reverb, and if you're playing guitar 2 (rhythm), use a little more bass.

b=Bend
r=Release
(9)=Ghost Note 

Intro
4/4
   Gtr I
|-----------------|---------------------|
|--9-9--7-7----14-|--14--12--14--15-----|
|--9-9--7-7----14-|--14--12--14--14-----|
|--9-9--7-7----14-|--14--12--14--14-----|
|-----------------|---------------------|
|-----------------|---------------------|

Verse
|-----------------|-----------|
|-5-5-5-5-5-5-5-5-|-5-5-5-----|
|-7-7-7-6-6-6-6-5-|-5-5-4-----|
|-----------------|-----------|
|-----------------|-----------|
|-----------------|-----------|

Prechorus	
|----------------|---------------------|
|-9-9--7-7----14-|--14--12--14--15-----|
|-9-9--7-7----14-|--14--12--14--14-----|
|-9-9--7-7----14-|--14--12--14--14-----|
|----------------|---------------------|
|----------------|---------------------|

Chorus
Gtr I
|------------------------|-------------------------|------------------------|
|------------------------|-------------------------|------------------------|
|12-12-12-12-12-12-12-15-|-15-15-15-15-15-15-15-15-|-12-12-12-12-12-12-12-12|
|12-12-12-12-12-12-12-15-|-15-15-15-15-15-15-15-15-|-12-12-12-12-12-12-12-12|
|10-10-10-10-10-10-10-13-|-13-13-13-13-13-13-13-13-|-10-10-10-10-10-10-10-10|
|------------------------|-------------------------|------------------------|
|Gtr II
|-----------------------|-------------------------|-------------------------|
|-----------------------|-------------------------|-------------------------|
|-----------------------|-------------------------|-------------------------|
|5--5--5--5--5--5--5--4-|--4--4--4--4--4--4--4--4-|--5--5--5--5--5--5--5--5-|
|5--5--5--5--5--5--5--4-|--4--4--4--4--4--4--4--4-|--5--5--5--5--5--5--5--5-|
|3--3--3--3--3--3--3--2-|--2--2--2--2--2--2--2--2-|--3--3--3--3--3--3--3--3-|

Gtr I
|---------------------------------|
|---------------------------------|
|---------------------------------|
|---------------------------------|
|-9b10r(9)b10r(9)b10r(9)b10-------|
|---------------------------------|


Preverse
|----------------|---------------------|
|-9-9--7-7----14-|--14--12--14--15-----|
|-9-9--7-7----14-|--14--12--14--14-----|
|-9-9--7-7----14-|--14--12--14--14-----|
|----------------|---------------------|
|----------------|---------------------|

Verse
|-----------------|-----------|
|-5-5-5-5-5-5-5-5-|-5-5-5-----|
|-7-7-7-6-6-6-6-5-|-5-5-4-----|
|-----------------|-----------|
|-----------------|-----------|
|-----------------|-----------|


Prechorus
|----------------|---------------------|
|-9-9--7-7----14-|--14--12--14--15-----|
|-9-9--7-7----14-|--14--12--14--14-----|
|-9-9--7-7----14-|--14--12--14--14-----|
|----------------|---------------------|
|----------------|---------------------|
[ Tab from: http://www.guitartabs.cc/tabs/h/hives/walk_idiot_walk_tab_ver_8.html ]
Chorus
Gtr I
|------------------------|-------------------------|------------------------|
|------------------------|-------------------------|------------------------|
|12-12-12-12-12-12-12-15-|-15-15-15-15-15-15-15-15-|-12-12-12-12-12-12-12-12|
|12-12-12-12-12-12-12-15-|-15-15-15-15-15-15-15-15-|-12-12-12-12-12-12-12-12|
|10-10-10-10-10-10-10-13-|-13-13-13-13-13-13-13-13-|-10-10-10-10-10-10-10-10|
|------------------------|-------------------------|------------------------|
|Gtr II
|-----------------------|-------------------------|-------------------------|
|-----------------------|-------------------------|-------------------------|
|-----------------------|-------------------------|-------------------------|
|5--5--5--5--5--5--5--4-|--4--4--4--4--4--4--4--4-|--5--5--5--5--5--5--5--5-|
|5--5--5--5--5--5--5--4-|--4--4--4--4--4--4--4--4-|--5--5--5--5--5--5--5--5-|
|3--3--3--3--3--3--3--2-|--2--2--2--2--2--2--2--2-|--3--3--3--3--3--3--3--3-|

Gtr I
|-------------------------------|-------------------------------|
|-------------------------------|-------------------------------|
|-------------------------------|-------------------------------|
|-------------------------------|-------------------------------|
|-9b10r(9)b10r(9)b10r(9)b10r----|-9b10r(9)b10r(9)b10r(9)b10-----|
|-------------------------------|-------------------------------|

Bridge
Staccato Notes (Played strong and quick, don't let them ring)
|---------------------|---------------------|
|---------------------|---------------------|
|---------------------|---------------------|
|---------------------|---------------------|
|-9-10-9-10-9-10-9-10-|-9-10-9-10-9-10-9-10-|
|---------------------|---------------------|


|----------------|---------------------|
|-9-9--7-7----14-|--14--12--14--15-----|
|-9-9--7-7----14-|--14--12--14--14-----|
|-9-9--7-7----14-|--14--12--14--14-----|
|----------------|---------------------|
|----------------|---------------------|

No Guitar in this Verse

Outro
|----------------|---------------------|
|-9-9--7-7----14-|--14--12--14--15-----|
|-9-9--7-7----14-|--14--12--14--14-----|
|-9-9--7-7----14-|--14--12--14--14-----|
|----------------|---------------------|
|----------------|---------------------|

Gtr I
|------------------------|-------------------------|------------------------|
|------------------------|-------------------------|------------------------|
|12-12-12-12-12-12-12-15-|-15-15-15-15-15-15-15-15-|-12-12-12-12-12-12-12-12|
|12-12-12-12-12-12-12-15-|-15-15-15-15-15-15-15-15-|-12-12-12-12-12-12-12-12|
|10-10-10-10-10-10-10-13-|-13-13-13-13-13-13-13-13-|-10-10-10-10-10-10-10-10|
|------------------------|-------------------------|------------------------|
|Gtr II
|-----------------------|-------------------------|-------------------------|
|-----------------------|-------------------------|-------------------------|
|-----------------------|-------------------------|-------------------------|
|5--5--5--5--5--5--5--4-|--4--4--4--4--4--4--4--4-|--5--5--5--5--5--5--5--5-|
|5--5--5--5--5--5--5--4-|--4--4--4--4--4--4--4--4-|--5--5--5--5--5--5--5--5-|
|3--3--3--3--3--3--3--2-|--2--2--2--2--2--2--2--2-|--3--3--3--3--3--3--3--3-|

Gtr I
|---------------------------------|
|---------------------------------|
|---------------------------------|
|---------------------------------|
|-9b10r(9)b10r(9)b10r(9)b10-------|
|---------------------------------|



|----------------|---------------------*|
|-9-9--7-7----14-|--14--12--14--15-----*|
|-9-9--7-7----14-|--14--12--14--14-----*|
|-9-9--7-7----14-|--14--12--14--14-----*|
|----------------|---------------------*|
|----------------|---------------------*|



*****************************************************************************
* Generated using Power Tab Editor by Brad Larsen - http://powertab.guitarnetwork.org *
*****************************************************************************
Comments