Hives - Walk Idiot Walk Chords & Tabs

 

Walk Idiot Walk Chords & Tabs

Hives Chords & Tabs

Version: 7 Type: Tab 0 ratings
1 star 2 stars 3 stars 4 stars 5 stars
comments

Walk Idiot Walk Tab

i tried a lot of walk walk idiot tabs but no tab matches.

its 100% the same as the original walk walk idiot

e|---------------------------------------------------------------------------|
B|-9-9--7--12-12--10--12-11--------------------------------------------------|
G|-9-9--7--12-12--10--12-12--------------------------------------------------|
D|-9-9--7--12-12--10--12-12----------------------------------------------------|
A|---------------------------------------------------------------------------|
E|---------------------------------------------------------------------------|

verse
[ Tab from: http://www.guitartabs.cc/tabs/h/hives/walk_idiot_walk_tab_ver_7.html ]
e|---------------------------------------------------------------------------|
B|-5-5-5-5-5-5-5-5-5-5-5-----------------------------------------------------|
G|-7-7-7-6-6-6-6-5-5-5-4-----------------------------------------------------|
D|---------------------------------------------------------------------------|
A|---------------------------------------------------------------------------|
E|---------------------------------------------------------------------------|

or:

e|-0-0-0-0-0-0-0-0-0-0-0-----------------------------------------------------|
B|---------------------------------------------------------------------------|
G|-7-7-7-6-6-6-6-5-5-5-4-----------------------------------------------------|
D|---------------------------------------------------------------------------|
A|---------------------------------------------------------------------------|
E|---------------------------------------------------------------------------|

its nearly the same sound

Chorus

e|---------------------------------------------------------------------------|
B|---------------------------------------------------------------------------|
G|---------------------------------------------------------------------------|
D|-5-------4---------5------4-5-4-5-4-5-4-5----------------------------------|
A|-5(8x)---4(8x)-----5(8x)--4-5-4-5-4-5-4-5----------------------------------|
E|-3-------2---------3------2-3-2-3-2-3-2-3----------------------------------|

i bet its walk idiot walk... thx! please dont forget to rate ;)
Comments