Hives - Walk Idiot Walk Chords & Tabs

 

Walk Idiot Walk Chords & Tabs

Hives Chords & Tabs

Version: 4 Type: Tab 0 ratings
1 star 2 stars 3 stars 4 stars 5 stars
comments

Walk Idiot Walk Tab

Email:snoutman928@yahoo.com
a lot of people didnt like the verse the way i had it so i fixed it. enjoy the improved tab.
Tuning:standard
intro/prechorus
e|---------------------------------------------------------------------------|
B|-9-9--7--14-14--12--14-15--------------------------------------------------|
G|-9-9--7--14-14--12--14-14--------------------------------------------------|
D|-9-9--7--14-14--12--14-14--------------------------------------------------|
A|-7-7--5--12-12--10--12-12--------------------------------------------------|
E|---------------------------------------------------------------------------|
verse
e|-0-0-0-0-0-0-0-0-0-0-0-----------------------------------------------------|
B|-3-3-3-2-2-2-2-1-1-1-0-----------------------------------------------------|
G|---------------------------------------------------------------------------|
D|---------------------------------------------------------------------------|
A|---------------------------------------------------------------------------|
E|---------------------------------------------------------------------------|
Chorus
e|---------------------------------------------------------------------------|
B|---------------------------------------------------------------------------|
G|---------------------------------------------------------------------------|
D|-5-------4---------5------4-5-4-5-4-5-4-5----------------------------------|
A|-5(x8)---4(x8)-----5(x8)--4-5-4-5-4-5-4-5----------------------------------|
E|-3-------2---------3------2-3-2-3-2-3-2-3----------------------------------|

i think thats it. if you have any corrections either email me or put them on the comment page.          
Enjoy
[ Tab from: http://www.guitartabs.cc/tabs/h/hives/walk_idiot_walk_tab_ver_4.html ]
Comments