Hives - Walk Idiot Walk Chords & Tabs

 

Walk Idiot Walk Chords & Tabs

Hives Chords & Tabs

Version: 1 Type: Tab 0 ratings
1 star 2 stars 3 stars 4 stars 5 stars
comments

Walk Idiot Walk Tab

   
		Walk Idiot Walk - The Hives


Not very much and probably all wrong but who cares.
Figured it out by watching the video which is great!




main riff [with distortion]:
[ Tab from: http://www.guitartabs.cc/tabs/h/hives/walk_idiot_walk_tab.html ]
     D   D   D     D   D   D     U   D
    
E|---12--12--10----12--12--10----14--12-------------------------|
B|---12--12--10----13--13--11----14--15-------------------------|
G|---13--13--11----14--14--12----15--16-------------------------|
D|---14--14--12----14--14--12----16--16-------------------------|
A|---14--14--12----12--12--10----16--14-------------------------|
E|---12--12--10----12--12--10----14--14-------------------------|

during verses [with distortion]:

E|---0-0-0-0-0-0-0-0-0-0----------------------------------------|
B|---3-3-3-2-2-2-1-1-1-0----------------------------------------|
G|--------------------------------------------------------------|
D|--------------------------------------------------------------|
A|--------------------------------------------------------------|
E|--------------------------------------------------------------|


tabbed by jul (bobafett@t-online.de)

Comments