Hives - Walk Idiot Walk Acoustic Chords & Tabs

 

Walk Idiot Walk Acoustic Chords & Tabs

Hives Chords & Tabs

Version: 1 Type: Tab 0 ratings
1 star 2 stars 3 stars 4 stars 5 stars
comments

Walk Idiot Walk Acoustic Tab

The Hives Walk idiot walk acoustic
From the album Tyrannosaurus Hives
Track 3
Tabbed by Liam
Email: guitar_rocker_47@hotmail.com

Note: I found out it is quite difficult to play my version of walk Idiot walk (which
I am currently submitting) on acoustic/classical guitar because there is no cut away
so here is an easier version to play 

Main Riff
Guitars 1 and 2

e|-4-4--2----8--8---6---8--10-|-4-4--2----8--8---6---8--10-|
B|-5-5--3----9--9---7---9---9-|-5-5--3----9--9---7---9---9-|
G|-4-4--2----8--8---6---8---8-|-4-4--2----8--8---6---8---8-|
D|----------------------------|----------------------------|
A|----------------------------|----------------------------|
E|----------------------------|----------------------------|

e|-4-4--2----8--8---6---8--10-|-4-4--2----8--8---6---8--10-|
B|-5-5--3----9--9---7---9---9-|-5-5--3----9--9---7---9---9-|
G|-4-4--2----8--8---6---8---8-|-4-4--2----8--8---6---8---8-|
D|----------------------------|----------------------------|
A|----------------------------|----------------------------|
E|----------------------------|----------------------------|

Verse
Guitar 1 and 2
e|-0-0-0-0--0-0-0-0--0-0-0--0--|-0-0-0-0--0-0-0-0--0-0-0--0--| \
B|-3-3-3-3--2-2-2-2--1-1-1--0--|-3-3-3-3--2-2-2-2--1-1-1--0--|  \
G|-----------------------------|-----------------------------|   \
D|-----------------------------|-----------------------------|    \
A|-----------------------------|-----------------------------|     \
E|-----------------------------|-----------------------------|      \
                    							   x2
e|-0-0-0-0--0-0-0-0--0-0-0--0--|-0-0-0-0--0-0-0-0--0-0-0--0--|      /
B|-3-3-3-3--2-2-2-2--1-1-1--0--|-3-3-3-3--2-2-2-2--1-1-1--0--|     /
G|-----------------------------|-----------------------------|    /
D|-----------------------------|-----------------------------|   /
A|-----------------------------|-----------------------------|  /
E|-----------------------------|-----------------------------| /

Repeat Main Riff x2

Chorus 1
Guitar 1
e|--------------------------------------------------------------|
B|--------------------------------------------------------------| 
G|---------------------5-5-5-5-5-5-5-5------------------------5-|
D|7--7--7--7--7--7--7--5-5-5-5-5-5-5-5---7--7--7--7--7--7--7--5-| 
A|7--7--7--7--7--7--7--3-3-3-3-3-3-3-3---7--7--7--7--7--7--7--3-|
E|5--5--5--5--5--5--5--------------------5--5--5--5--5--5--5----| 

Guitar 2 (bend these with your whammy bar or if you don't have one 
just bend the chord with your freting hand
e|--------------------------------------------------------------------|
B|--------------------------------------------------------------------|
G|--11~~~~---------10~~~~------11~~~~--------10~~~~---------7~~~~-----|
D|--11~~~~---------10~~~~------11~~~~--------10~~~~---------7~~~~-----|
A|---9~~~~----------8~~~~-------9~~~~---------8~~~~---------5~~~~-----|
E|--------------------------------------------------------------------|
[ Tab from: http://www.guitartabs.cc/tabs/h/hives/walk_idiot_walk_acoustic_tab.html ]
Post chorus
Just one guitar plays this (no bass or guitar 2 plays here)
e|-4-4--2----8--8---6---8--10-|
B|-5-5--3----9--9---7---9---9-|
G|-4-4--2----8--8---6---8---8-|
D|----------------------------|
A|----------------------------|
E|----------------------------|

Repeat Main riff
       Verse
       Main Riff
       
Chorus 2
Guitar 1
e|--------------------------------------------------------------|
B|--------------------------------------------------------------| 
G|---------------------5-5-5-5-5-5-5-5------------------------5-|
D|7--7--7--7--7--7--7--5-5-5-5-5-5-5-5---7--7--7--7--7--7--7--5-| 
A|7--7--7--7--7--7--7--3-3-3-3-3-3-3-3---7--7--7--7--7--7--7--3-|
E|5--5--5--5--5--5--5--------------------5--5--5--5--5--5--5----|

Guitar 2 (bend these with your whammy bar or if you don't have one 
just bend the chord with your freting hand                     |use vibrato on these|
e|-------------------------------------------------------------|-------------|
B|-------------------------------------------------------------|-------------|
G|--11~~~~---------10~~~~------11~~~~--------10~~~~---7~~------|-9-9-9-9-9-9-|
D|--11~~~~---------10~~~~------11~~~~--------10~~~~---7~~---9b-|-9-9-9-9-9-9-|
A|---9~~~~----------8~~~~-------9~~~~---------8~~~----5~~---9b-|-7-7-7-7-7-7-|
E|-------------------------------------------------------------|-------------|

Repeat Main Riff
       (Pause for bass playing on its own)
       Main riff x2
       Chorus 1
       Post chorus



Lyrics

(Verse)
Well is it true what they say about it
They say it's new but I have to doubt it
And then they tell you everything about it
Had enough

I got some people saying this way 
I got some people saying that way
I got some people saying there's no way
Ain't it tough?

(Main riff part)
See the idiot walk, see the idiot talk
See the idiot chalk up his name on the blackboard
See the robot walk, see the robot talk
See the robot write up his name on the ballot

(Chorus)
They say, this is all I need to get by...
But the truth is baby it's a lieeeeyayayaay (you know what I mean)

(Verse)
Well is it true what they say about it
You ought to do what I do and doubt it
He won and now he's gonna do something about it 
Ain't it sad

And if you don't wanna feel like a putz
Collect the clues and connect the dots
You'll see the pattern that is bursting your bubble
And its bad

(Main riff part)
See the idiot walk, see the idiot talk
See the idiot chalk up his name on the blackboard

(Chorus 2)
They say, this is all I need to get by...
But the truth is baby it's a lieeeeyayayaay it's a... it's a lie, a, a, a, a, o, o, o, 

(Here's what it boils down to)

(Bass on its own bit)
If we review the winning combination
Body at work and a mind on vacation
Who had the brain when it started to sink in?
It was you

(Main riff part 2 near the end)
You've seen the idiot walk, see the idiot talk
But you've never learned nothing and nothing isn't over
See the robot walk, see the robot talk
Still you've never learned nothing and nothing isn't over

(Chorus 2)
They say, this is all I need to get by...
And til' this baby it's a lieeeeyayaya

Tada! Lastly if any one has a correct tab for 'two timing touch and broken bones'
could they please submit it on UG please! Thanks and bye again!
Comments