Hives - Uptempo Venomous Poison Chords & Tabs

 

Uptempo Venomous Poison Chords & Tabs

Hives Chords & Tabs

Version: 1 Type: Tab

Uptempo Venomous Poison Tab

   
Uptempo venomous poison
by 
the hives
VERSE
[ Tab from: http://www.guitartabs.cc/tabs/h/hives/uptempo_venomous_poison_tab.html ]
e-|---------|
B-|---------|
G-|---------|
D-|-9-9-5-7-|
A-|-9-9-5-7-|
E-|-7-7-3-5-|

CHORUS

e-|---------|
B-|---------|
G-|---------|
D-|-9-7-5-4-|
A-|-9-7-5-4-|
E-|-7-5-3-2-|