Hives - Untutored Youth Chords & Tabs

 

Untutored Youth Chords & Tabs

Hives Chords & Tabs

Version: 1 Type: Bass Tab 0 ratings
1 star 2 stars 3 stars 4 stars 5 stars
comments

Untutored Youth Bass Tab

Standard Tuning

G|---------------------------------| Main Riff
D|---------------------------------|
A|-8-8-8-8-------------------------|
E|---------6-6-6-6-9-9-9-9-8-8-8-8-|
[ Tab from: http://www.guitartabs.cc/tabs/h/hives/untutored_youth_btab.html ]
G|------------------------------------| Main Riff played
D|------------------------------------| just before the
A|-8-8-8-8-------------------------8r-| break, where he 
E|---------6-6-6-6-9-9-9-9-8-8-8-8----| speaks.

It really is that easy.

This writing is just to make the tab long enough.  It's an amazingly simple tab which
makes it a nice one to play... if a little boring.
Comments