Hives - Tyrannosaurus Hives Chords & Tabs

 

Tyrannosaurus Hives Chords & Tabs

Hives Chords & Tabs

Version: 1 Type: Tab 0 ratings
1 star 2 stars 3 stars 4 stars 5 stars
comments

Tyrannosaurus Hives Tab

   
TYRANNOSAURUS HIVES ALBUM

SONGS

1.  ABRA CADAVER
2.  TWO-TIMNG TOUCH AND BROKEN BONES
3.  WALK IDIOT WALK
4.  NO PUN INTENDED
5.  A LITTLE MORE FOR A LITTLE YOU
6.  B IS FOR BRUTUS
7.  SEE THROUGH HEAD
8.  DIABOLIC SCHEME
9.  MISSING LINK
10.	LOVE IN PLASTER
11. DEAD QUOTE OLYMPICS
12. ANTIDOTE

TABBED BY: DEVLIN MORTON devlin_morton@hotmail.com
========================================================

1. ABRA CADAVER

Main Riff
e)-------------------------------------------|
b)-------------------------------------------|
g)-------------------------------------------|
d)-----999999999999999995555777799999999-----|
a)-----999999999999999995555777799999999-----|
E)-----777777777777777773333555577777777-----|

Guitar2/Outro
e)-------------------------------------|
b)-------------------------------------|
g)-------------------------------------|
d)-------------------------------------|
a)-----2-2-0-2-2-2-0-2-2-2-0-2-2-2-----|
E)-------------------------------------|


2. TWO-TIMING TOUCH AND BROKEN BONES


Intro/Verse
e)-----0--0--3--3--5--5--8--8------0-0-0-0-3-3-3-3-5-5-5-5-8-8-8-8----|
b)-----0--0--3--3--5--5--8--8------0-0-0-0-3-3-3-3-5-5-5-5-8-8-8-8----|
g)-----1--1--4--4--6--6--9--9------1-1-1-1-4-4-4-4-6-6-6-6-9-9-9-9----|
d)-----2--2--5--5--7--7--10-10-----2-2-2-2-5-5-5-5-7-7-7-710101010----|
a)-----2--2--5--5--7--7--10-10-----2-2-2-2-5-5-5-5-7-7-7-710101010----|
E)-----0--0--3--3--5--5--8--8------0-0-0-0-3-3-3-3-5-5-5-5-8-8-8-8----|

Post-Verse
e)-----------------------------------------|
b)-----------------------------------------|
g)-----4-4-4-4-4-4-4-4-4-4-4-4-4-4-4-4-----|      X2
d)-----4-4-4-4-4-4-4-4-4-4-4-4-4-4-4-4-----|
a)-----2-2-2-2-2-2-2-2-2-2-2-2-2-2-2-2-----|
E)-----------------------------------------|

Pre-Chorus
e)-------------------------------------------------------------------------|
b)-------------------------------------------------------------------------|
g)-----4-4-4-4-4-4-4-4-4-4-4-4-4-4-4-4-7-7-7-7-7-7-7-7-9-9-9-9-9-9-9-9-----|
d)-----4-4-4-4-4-4-4-4-4-4-4-4-4-4-4-4-7-7-7-7-7-7-7-7-9-9-9-9-9-9-9-9-----|
a)-----2-2-2-2-2-2-2-2-2-2-2-2-2-2-2-2-5-5-5-5-5-5-5-5-7-7-7-7-7-7-7-7-----|
E)-------------------------------------------------------------------------|

Chorus
e)-----------------------------------------|
b)-----------------------------------------|
g)-------------------7-7-7-7-7-7-7---------|
d)-----9-9-9-9-9-7-7-7-7-7-7-7-7-7-9-9-----|
a)-----9-9-9-9-9-7-7-5-5-5-5-5-5-5-9-9-----|
E)-----7-7-7-7-7-5-5---------------7-7-----|
It's really important that you only play the B 5 times to make it sound better.


3. WALK IDIOT WALK

Chorus 1
e)------------------------------------|
b)-----9-9--7----14-14--12--14-15-----|
g)-----9-9--7----14-14--12--14-14-----|
d)-----9-9--7----14-14--12--14-14-----|
a)------------------------------------|
E)------------------------------------|

Verse
e)-----0-0-0-0-0-0-0-0-0-0-0-0-----|
b)-----3-3-3-3-2-2-2-2-1-1-1-0-----|
g)---------------------------------|
d)---------------------------------|
a)---------------------------------|
E)---------------------------------|

Chorus 2
e)---------------------------------------------------------|
b)---------------------------------------------------------|
g)---------------------------------------------------------|
d)-----5-5-5-5-5-5-5-5-4-4-4-4-4-4-4-4-5-5-5-5-5-5-5-5-----|
a)-----5-5-5-5-5-5-5-5-4-4-4-4-4-4-4-4-5-5-5-5-5-5-5-5-----|
E)-----3-3-3-3-3-3-3-3-2-2-2-2-2-2-2-2-3-3-3-3-3-3-3-3-----|

After the second time play this

e)--------------|--------------------------------------|
b)--------------|--------------------------------------|
g)--------------|--------------------------------------|
d)-----5-5-5-5--|--------------------------------------|
a)-----5-5-5-5--|-----9b--------9-10-9-10-9-10-9-10----|
E)-----3-3-3-3--|--------------------------------------|


4. NO PUN INTENDED

Intro
e)--------------------------------------------------------------------|
b)--------------------------------------------------------------------|
g)-----------12-12-12-------------------------------------------------|
d)-----9-9-9-12-12-12-12-12-12-12-12-12-12-12-12-12-12-12-12-12-12-12-|
a)-----9-9-9-10-10-10-12-12-12-12-12-12-12-12-12-12-12-12-12-12-12-12-|
E)-----7-7-7----------10-10-10-10-10-10-10-10-10-10-10-10-10-10-10-10-|

e)--------------------------------------------------------------------|
b)--------------------------------------------------------------------|
g)-----16-16-16-------------------------------7-7-7-7-7-7-7-7---------|
d)-----16-16-16-16-16-16-16-16-16-16-16-7-7-7-7-7-7-7-7-7-7-7---------|
a)-----14-14-14-16-16-16-16-16-16-16-16-7-7-7-5-5-5-5-5-5-5-5---------|
E)--------------14-14-14-14-14-14-14-14-5-5-5-------------------------|

e)--------------------------------------------------------------|
b)--------------------------------------------------------------|
g)-----------12-12-12----------16-16----------------------------|
d)-----9-9-9-12-12-12-12-12-12-16-16-16-16-16-16-16-16-16-16----|
a)-----9-9-9-10-10-10-12-12-12-14-14-16-16-16-16-16-16-16-16----|
E)-----7-7-7----------10-10-10-------14-14-14-14-14-14-14-14----|

e)-------------------------------|
b)-------------------------------|
g)-----------7-7-7-7-7-7-7-7-----|
d)-----7-7-7-7-7-7-7-7-7-7-7-----|
a)-----7-7-7-5-5-5-5-5-5-5-5-----|
E)-----5-5-5---------------------|

The Verse is just the first two bars only with a more Ds, you play them until Pelle takes
a break when he's singing. The Chorus is the same only when Pelle doesn't sing, it's the
exact same as the Intro.

Interlude
e)--------------------------------------------------------------------------|
b)--------------------------------------------------------------------------|
g)-----1111111111111111111111111111111116161616161616161616161616161616-----|    X2
d)-----1111111111111111111111111111111116161616161616161616161616161616-----|
a)-----9-9-9-9-9-9-9-9-9-9-9-9-9-9-9-9-14141414141414141414141414141414-----|
E)--------------------------------------------------------------------------|

e)---------------------------------------------------------------------------|
b)---------------------------------------------------------------------------|
g)---------------------------------------------------------10-10----10-10----|
d)-----777777779999999977777777999999997777777777777777----10-10----10-10----|
a)-----777777779999999977777777999999997777777777777777----8--8-----8--8-----|
E)-----555555557777777755555555777777775555555555555555----------------------|


5. A LITTLE MORE FOR A LITTLE YOU

Intro
e)---------------------|
b)---------------------|
g)---------------------|
d)---------0-----------|
a)-----2-2---2-0-2-----|
E)---------------------|

Verse
D		Bm	X2		D			G		D		Bm
e)-----5--55-5-5----7--77-7-7---|-----5--55-5-5----10--1010-10-10----5--55-5-5----7--77-7-7-|
b)-----7--77-7-7----7--77-7-7---|-----7--77-7-7----12--1212-12-12----7--77-7-7----7--77-7-7-|
g)-----7--77-7-7----7--77-7-7---|-----7--77-7-7----12--1212-12-12----7--77-7-7----7--77-7-7-|
d)-----7--77-7-7----9--99-9-9---|-----7--77-7-7----12--1212-12-12----7--77-7-7----9--99-9-9-|
a)-----5--55-5-5----9--99-9-9---|-----5--55-5-5----10--1010-10-10----5--55-5-5----9--99-9-9-|
E)------------------7--77-7-7---|-------------------------------------------------7--77-7-7-|

Repeat all that then...

e)-----5--55-5-5----3333-5555-5------|
b)-----7--77-7-7----3333-5555-7------|
g)-----7--77-7-7----4444-6666-7------|
d)-----7--77-7-7----5555-7777-7------|
a)-----5--55-5-5----5555-7777-5------|
E)------------------3333-5555--------|

Chorus			X3
e)-----55555555-77777777--|---33333333-55555555-----|
b)-----77777777-77777777--|---33333333-55555555-----|
g)-----77777777-77777777--|---44444444-66666666-----|
d)-----77777777-99999999--|---55555555-77777777-----|
a)-----55555555-99999999--|---55555555-77777777-----|
E)--------------77777777--|---33333333-55555555-----|


6.B IS FOR BRUTUS

Intro		X3
e)------------|------------------------------|
b)------------|------------------------------|
g)------------|------------------------------|
d)-----5/9----|---4-4-4-4--------------------|
a)-----5/9----|---4-4-4-4--5-4-5-6-7-5-4-0---|
E)-----3/7----|---2-2-2-2--------------------|

Main Riff Guitar 1
e)---------------------------------------------------------------|
b)---------------------------------------------------------------|
g)---------------------------------------------------------------|
d)---------------------------------------------------------------|
a)---------9-8-7-0------5-4-5-0------9-8-7-0--5-4-5-6-7-5-4-0----|
E)-----0-7----------0-3----------0-7-----------------------------|

Guitar 2
e)-----------------------------------------------|
b)-----------------------------------------------|
g)-----------------------------------------------|
d)----0-9-9-9/7777-0-5-5-5/7777-0-9-9-9/7777-----|
a)----0-9-9-9/7777-0-5-5-5/7777-0-9-9-9/7777-----|
E)----0-7-7-7/5555-0-3-3-3/5555-0-7-7-7/5555-----|

Verse
e)---------------------------------------------------------------|
b)---------------------------------------------------------------|
g)----------------------------------------------------7---9------|
d)-----9----------------------------------------------7---9------|
a)-----9----------------------------------------------5---7------|
E)-----7---------0-7-0-7---------0-7-0-7--------0-7-0------------|

e)---------------------------------------------------------------|
b)-----7---------7-7-7-----------7-7-7----------7-7-7------------|
g)-----7---------7-9-7-4---------7-9-7-4--------7-9-7-7---9------|
d)----------------------------------------------------7---9------|
a)----------------------------------------------------5---7------|
E)---------------------------------------------------------------|

Play that twice then play

e)---------------------------------------------------------------|
b)---------------------------------------------------------------|
g)-----7-7-7-7-7-7-7-7-9-9-9-9-9-9-9-9--12-11--9--7--11----------|
d)-----7-7-7-7-7-7-7-7-9-9-9-9-9-9-9-9--12-11--9--7--11-9--------|
a)-----5-5-5-5-5-5-5-5-7-7-7-7-7-7-7-7--10-9---7--5--9--9--------|
E)------------------------------------------------------7--------|

Interlude Guitar 1
e)------------|------------------------------|
b)------------|------------------------------|
g)------------|------------------------------|
d)-----5/9----|---4-4-4-4--------------------|
a)-----5/9----|---4-4-4-4--5-4-5-6-7-5-4-0---|
E)-----3/7----|---2-2-2-2--------------------|
[ Tab from: http://www.guitartabs.cc/tabs/h/hives/tyrannosaurus_hives_tab.html ]
e)---------------------------------------------------------------|
b)---------------------------------------------------------------|
g)---------------------------------------------------------------|
d)---------------------------------------------------------------|
a)---------9-8-7-0------5-4-5-0------9-8-7-0--5-4-5-6-7-5-4-0----|
E)-----0-7----------0-3----------0-7-----------------------------|

e)---------------------------------------------------------------|
b)---------------------------------------------------------------|
g)--------------------------------------------7-7-7-9------------|
d)--------------------------------------------7-7-7-9------------|
a)---------9-8-7-0------5-4-5-0------9-8-7-0--5-5-5-7------------|
E)-----0-7----------0-3----------0-7-----------------------------|

Interlude Guitar 2
e)-------------------------------21----------|
b)--------------------19---------------------|
g)--------16---------------------------------|
d)-----17----------17---------17-------------|
a)-------------------------------------------|
E)-------------------------------------------|

e)---------------------------------------------------------------|
b)---------------------------------------------------------------|
g)---------------------------------------------------------------|
d)----0-9-9-9/7777-0-5-5-5/7777-0-9-9-9/7777---------------------|
a)----0-9-9-9/7777-0-5-5-5/7777-0-9-9-9/7777---------------------|
E)----0-7-7-7/5555-0-3-3-3/5555-0-7-7-7/5555---------------------|

e)---------------------------------------------------------------|
b)---------------------------------------------------------------|
g)--------------------------------------------7-7-7-9------------|
d)----0-9-9-9/7777-0-5-5-5/7777-0-9-9-9/7777--7-7-7-9------------|
a)----0-9-9-9/7777-0-5-5-5/7777-0-9-9-9/7777--5-5-5-7------------|
E)----0-7-7-7/5555-0-3-3-3/5555-0-7-7-7/5555---------------------|

Outro
e)--------------------------------------------------------------|
b)--------------------------------------------------------------|
g)--------------------------------------------------------------|	X2
d)----0-9-9-9/7777-0-5-5-5/7777-0-9-9-9/7777--------------------|
a)----0-9-9-9/7777-0-5-5-5/7777-0-9-9-9/7777-5-4-5-6-7-5-4-0----|
E)----0-7-7-7/5555-0-3-3-3/5555-0-7-7-7/5555--------------------|

e)-----------------------------|
b)-----------------------------|
g)-----12-11----9--7--11-------|
d)-----12-11----9--7--11-9-----|
a)-----10-9-----7--5--9--9-----|
E)-----------------------7-----|


7. SEE THROUGH HEAD

Intro
e)--------------------------------|
b)--------------------------------|
g)--------------------------------|
d)----5-4-3-5-4-3-5-4-3-5-4-3-----|
a)--------------------------------|
E)--------------------------------|

Chorus
e)----------------------------------------------------------------|
b)----------------------------------------------------------------|
g)--------------8888------8888----------15151515-8888-10101010----|
d)-----10101010-8888-6666-8888-10101010-15151515-8888-10101010----|
a)-----10101010-6666-6666-6666-10101010-13131313-6666-8-8-8-8-----|
E)-----8-8-8-8-------4444------8-8-8-8----------------------------|

Verse
e)---------------------------------------|
b)---------------10--8--4--8-8-8-8-8-----|
g)---------------10--8--5--8-8-8-8-8-----|
d)-----10101010--10--8--6--8-8-8-8-8-----|
a)-----10101010--------------------------|
E)-----8-8-8-8---------------------------|

Interlude
e)--------------------------------|
b)--------------------------------|
g)--------------------------------|
d)----5-4-3-5-4-3-5-4-3-5-4-3-----|
a)--------------------------------|
E)--------------------------------|


8. DIABOLIC SCHEME

Main Riff Guitar 1
e)-------------------------------------------------------------------|
b)-------------------------------------------------------------------|
g)-----10-10-10-10-10-10-10-10-10-10-10-10---------------------------|
d)-----10-10-10-10-10-10-10-10-10-10-10-10-8-8-8-8-8-8-8-8-8-8-8-8---|
a)-----8--8--8--8--8--8--8--8--8--8--8--8--8-8-8-8-8-8-8-8-8-8-8-8---|
E)-----------------------------------------6-6-6-6-6-6-6-6-6-6-6-6---|

Main Riff Guitar 2
e)------------------------------------------------------------------|
b)------------------------------------------------------------------|
g)-----1010101010101010--------------------1414141414141414---------|
d)-----1010101010101010--------------------1414141414141414---------|
a)-----8-8-8-8-8-8-8-8---------------------1212121212121212---------|
E)------------------------------------------------------------------|

Interlude
e)-------------------|
b)-------------------|
g)-------------------|
d)-------------------|
a)-----8-----8-------|
E)-------7-5---7-5---|

e)------------------------|
b)------------------------|
g)-----1010101010101010---|
d)-----1010101010101010---|
a)-----8-8-8-8-8-8-8-8----|
E)------------------------|

Solo (I am no where NEAR 100% sure on this part)
e)--------------------------------------------------------------|
b)--------------------------------------------------------------|
g)--------------------------------------------------------------|
d)--------1414141414141414-----1010101010101010-----------------|
a)----/12-1212121212121212-----8-8-8-8-8-8-8-8-----3-5-----3----|
E)-----------------------------------------------------3-5---5--|

e)--------------------------------------------------------------|
b)---------------------------------------16-14------------------|
g)---------------------------------------------13---------------|
d)----10101010-10b-10b-10b-10^--16161616------------------------|
a)----8-8-8-8-------------------14141414------------------------|
E)--------------------------------------------------------------|

e)--------------------------------------------------------------|
b)----16-14--12-9----14/---16/---18~----------------------------|
g)--------------------------------------------------------------|
d)-----------------------------------------------0--------------|
a)---------------------------------------12~-----0--------------|
E)---------------------------------------------------------5/---|


9. MISSING LINK

Riff 1
e)--------------------------|
b)--------------------------|
g)--------------------------|
d)-----5555666677778888-----|
a)-----5555666677778888-----|
E)-----3333444455556666-----|

Verse/Chorus
e)----------------------------------|
b)-----10--8--------10--8-----------|
g)-----10--8--------10--8-----------|
d)-----10--8--7--5--10--8--7--5-----|
a)------------7--5---------7--5-----|
E)----------------------------------|

Pre-Chorus
e)-----------------|
b)----------10-----|
g)----------10-----|
d)-----10-8-10-----|
a)-----10-8--------|
E)-----------------|

Interlude
e)-----------------------------------------------------------------------------|
b)-----------------------------------------------------------------------------|
g)-----10-10-10-10-10-10-10-10-------------------------10-10-10-10-10-10-10-10-|
d)-----10-10-10-10-10-10-10-10-10-10-10-10-10-10-10-10-10-10-10-10-10-10-10-10-|
a)-----8--8--8--8--8--8--8--8--10-10-10-10-10-10-10-10-8--8--8--8--8--8--8--8--|
E)-----------------------------8--8--8--8--8--8--8--8--------------------------|

e)------------------------------------------|
b)------------------------------------------|
g)------------------------------------------|
d)-----5555666677778888--5555666677778888---|
a)-----5555666677778888--5555666677778888---|
E)-----3333444455556666--3333444455556666---|


10. LOVE IN PLASTER

Verse
e)--------------------|----------------------------------------------------|
b)--------------------|---------------------6-------6-------6-------6------|
g)--------------------|-------------------5---5---5---5---5---5---5---5----|
d)----0-0-0-0-0-0-0-0-|-0-0-0-0-0-0-0-0-3-------3-------3-------3----------|
a)--------------------|----------------------------------------------------|
E)--------------------|----------------------------------------------------|

Pre-Chorus
e)-----------------|
b)-----------------|
g)-----3-3----3----|
d)-----3-3----3----|
a)-----1-1----1----|
E)-----------------|

Chorus/Solo
e)-------------------------------------------------------------------|
b)------------------------------------------------------------1------|
g)--------------------------------------------------------0-2---2----|
d)-----3-0--0---0-3-0-------------------3--0--0----2-3-2-3-----------|
a)---0-----3----------3-0---0--3-0----0------3---3-------------------|
E)------------------------3------------------------------------------|

e)-----------------------------|
b)-----1-66666666/88888888-----|
g)----2--77777777/99999999-----|
d)--------------------------0--|
a)-----------------------------|
E)-----------------------------|

For the solo, just play the first bar twice then play the second once


11. DEAD QUOTE OLYMPICS

Chorus
e)----------------------------------------|
b)----------------------------------------|
g)---------------------7-7-7-7-7-7-7-7----|
d)-----7-7-7-7-7-7-7-7-7-7-7-7-7-7-7-7----|
a)-----7-7-7-7-7-7-7-7-5-5-5-5-5-5-5-5----|
E)-----5-5-5-5-5-5-5-5--------------------|

Verse
e)--------------------------------------------------|
b)-----2--------------------------------------7-----|
g)-----2--------------------------------------7-----|
d)-----2--------------------------------------7-----|
a)--------------------------------------------------|
E)--------------------------------------------------|

Pre-Chorus
e)------------------------|
b)------------------------|
g)-----7--7------9--9-----|
d)-----7--7------9--9-----|
a)-----5--5------7--7-----|
E)------------------------|

Other Verse
e)--------------------------------------------------|
b)--------------------------------------------------|
g)-----2-2-2--2-2-2--------------7-7-7--7-7-7-------|
d)-----2-2-2--2-2-2--------------7-7-7--7-7-7-------|
a)-----2-2-2--2-2-2--------------7-7-7--7-7-7-------|
E)--------------------------------------------------|


12. ANTIDOTE

Riff 1
e)------------------------------------------------|
b)------------------------------------------------|
g)-----------------888---------------------888----|
d)-----88-88-8-888-888-1010-1010-10-101010-888----|
a)-----88-88-8-888-666-1010-1010-10-101010-666----|
E)-----66-66-6-666-----8-8--8-8--8--8-8-8---------|

Riff 2
e)-----------------------------|
b)-----------------------------|
g)----------------8------------|
d)-----8/10-8/10--8-8-12-10----|
a)-----8/10-8/10--6-8-12-10----|
E)-----6/8--6/8-----6-10-8-----|


KEYS:
b= Bend
^= Big end
Comments