Hives - Two-timing Touch And Broken Bones Chords & Tabs

 

Two-timing Touch And Broken Bones Chords & Tabs

Hives Chords & Tabs

Version: 3 Type: Tab 0 ratings
1 star 2 stars 3 stars 4 stars 5 stars
comments

Two-timing Touch And Broken Bones Tab

   
intro guitar 1+2
e|---------------------------|
B|---------------------------|
G|--------4-4-4-6-6-6-9-9-9--|
D|-2-2-2--5-5-5-7-7-7-101010-|x4
A|-2-2-2--5-5-5-7-7-7-101010-|
E|-0-0-0--3-3-3-5-5-5-8-8-8--|

guitar 1
e|-----------|
B|-----------|
G|-8-8-8-8-8-|
D|-9-9-9-9-9-|x5
A|-9-9-9-9-9-|
E|-7-7-7-7-7-|

verse(same as intro)
[ Tab from: http://www.guitartabs.cc/tabs/h/hives/two_timing_touch_and_broken_bones_tab_ver_3.html ]
pre-chorus
e|---------------------------------|
B|---------------------------------|
G|---------------------------------|
D|-9-9-9-9-9-9-9-9-9-9-9-9-9-9-9-9-|
A|-9-9-9-9-9-9-9-9-9-9-9-9-9-9-9-9-|
E|-7-7-7-7-7-7-7-7-7-7-7-7-7-7-7-7-|

e|-------------------------|-------------------------|
B|-------------------------|-------------------------|
G|-------------------------|-------------------------|
D|-12-12-12-12-12-12-12-12-|-14-14-14-14-14-14-14-14-|
A|-12-12-12-12-12-12-12-12-|-14-14-14-14-14-14-14-14-|
E|-10-10-10-10-10-10-10-10-|-12-12-12-12-12-12-12-12-|

chorus
e|-------------------------|
B|-------------------------|
G|-4-4-4-4-4---7-7-7-7-7---|
D|-4-4-4-4-4-7-7-7-7-7-7-7-|x4
A|-2-2-2-2-2-7-5-5-5-5-5-7-|
E|-----------5-----------5-|

verse 2

chorus

outro(just chorus x8 instead of 4)

sweet tune
David
Comments