Hives - Two-timing Touch And Broken Bones Chords & Tabs

 

Two-timing Touch And Broken Bones Chords & Tabs

Hives Chords & Tabs

Version: 2 Type: Bass Tab 0 ratings
1 star 2 stars 3 stars 4 stars 5 stars
comments

Two-timing Touch And Broken Bones Bass Tab

-------------------------------------------------------------------------------
		   The Hives - Two-Timing touch and broken bones
-------------------------------------------------------------------------------
Album: The Tyrannosaurus Hives
Tabbed by: Harald Hveem
Email: Ace_ventuora@hotmail.com

Tuning: EADG


|-------------------------|
|-------------------------|
|-------------------------|  x4
|---0---3---5---8---------|

|-------------------------|
|-------------------------|
|-------------------------|  x8
|---0---3---5---8---------|
[ Tab from: http://www.guitartabs.cc/tabs/h/hives/two_timing_touch_and_broken_bones_btab_ver_2.html ]
|-------------------------|
|-------------------------|
|-------------------------|  x4
|---777777-10101010-------|

|-------------------------|
|-------------------------|
|-------------------------|  x4
|---0---3---5---8---------|

|-------------------------|
|-------------------------|
|-------------------------|  x4
|---0---3---5---8---------|

|-------------------------|
|-------------------------|
|-------------------------|  
|---777777-10101010-------|

|-------------------------|
|-------------------------|
|-------------------------|  
|---7777-5555-10101010----|


Thats all, easy song :)
The other tab for this song is ok, but it does not include the "bridsges".
\m/ Peace \m/
Comments