Hives - Supply And Demand Chords & Tabs

 

Supply And Demand Chords & Tabs

Hives Chords & Tabs

Version: 2 Type: Tab 0 ratings
1 star 2 stars 3 stars 4 stars 5 stars
comments

Supply And Demand Tab

This is another cool song by The Hives...it's pretty easy...this is only the
first(second...who knows...who cares)the other one keeps up the noise

tabbed by = And_Squall/Submundo_Underground

Verse
e|-6-8---------------------------------------|
B|-6-8---------------------------------------|
G|-7-9---------------------------------------|
D|-8-10--------------------------------------|
A|-8-10--------------------------------------|
E|-6-8---------------------------------------|

Pre-Chorus
e|-7----------------------------------------|
B|-7----------------------------------------|
G|-8----------------------------------------|
D|-9----------------------------------------|
A|-9----------------------------------------|
E|-7----------------------------------------|
[ Tab from: http://www.guitartabs.cc/tabs/h/hives/supply_and_demand_tab_ver_2.html ]
Chorus
e|-7----7-8--5-------------------------------------|
B|-7----7-8--5-------------------------------------|
G|-8----8-9--6-------------------------------------|
D|-9----9-10-7-------------------------------------|
A|-9----9-10-7-------------------------------------|
E|-7----7-8--5-------------------------------------|

Fill(The Part with the Claps)
e|-7-8---------------------------------------|
B|-7-8---------------------------------------|
G|-8-9----8-10-------------------------------|
D|-9-10---8-10-------------------------------|
A|-9-10---6-8--------------------------------|
E|-7-8---------------------------------------|

There are little variations of the chords on the chorus...but the other guitar
make so much noise that no one will notice if you don't play it.>=D
Comments