Hives - Outsmarted Chords & Tabs

 

Outsmarted Chords & Tabs

Hives Chords & Tabs

Version: 4 Type: Tab 0 ratings
1 star 2 stars 3 stars 4 stars 5 stars
comments

Outsmarted Tab

THE HIVES ----------- OUTSMARTED
CD: VENI VIDI VICIOUS
tabbed by: dave schneider

drum intro

riff 1
   (6x)
 E|-----|------------------------------------|
 B|-----|-----------8-----8------------------|
 G|--9--|-----------8----10b-----------------|
 D|-10--|-8-10-8-10---10------6-6-6-6-5-5-5--|
 A|-10--|-8-10-8-10---10------6-6-6-6-5-5-5--|
 E|--8--|-6--8-6--8----8------4-4-4-4-3-3-3--|


 E|---------------------------------|
 B|------------8-----8--------------|
 G|------------8----10b-------------|
 D|--8-10-8-10---10------6-6-6-6-5--|
 A|--8-10-8-10---10------6-6-6-6-5--|
 E|--6--8-6--8----8------4-4-4-4-3--|

[ Tab from: http://www.guitartabs.cc/tabs/h/hives/outsmarted_tab_ver_4.html ]
riff 2       (2x)		  then..
 E|-------------------------|----------------------------------|
 B|-------------10-10-10-10-|----------------------------------|
 G|--9--9--9--9-10-10-10-10-|-5-5-5-5-4-4-4-4--9--9--9--9--9---|
 D|-10-10-10-10-10-10-10-10-|-6-6-6-6-5-5-5-5-10-10-10-10-10---|
 A|-10-10-10-10--8--8--8--8-|-6-6-6-6-5-5-5-5-10-10-10-10-10---|
 E|--8--8--8--8-------------|-4-4-4-4-3-3-3-3--8--8--8--8--8---|


 E|-------------------8----8------|
 B|-------------------------------|
 G|--9------------------8b---8b---|
 D|-10----------------------------|
 A|-10----------------------------|
 E|--8----------------------------|


then there?s a part where you do a call and answer with
howlin? pelle and you just hit this chord

 E|-------|
 B|--10---|
 G|--10---|
 D|--10---|
 A|---8---|
 E|-------|

listen to the song for when to play the parts

?the rizzle-razzle kitsch of paranoid city.? Howlin? P.
Comments