Hives - Main Offender Chords & Tabs

 

Main Offender Chords & Tabs

Hives Chords & Tabs

Version: 4 Type: Tab 0 ratings
1 star 2 stars 3 stars 4 stars 5 stars
comments

Main Offender Tab

#----------------------------------PLEASE NOTE---------------------------------#
#This file is the author's own work and represents their interpretation of the #
#song. You may only use this file for private study, scholarship, or research. #
#------------------------------------------------------------------------------#
Hives:  Main Offender

Verse:

E:--------------------------------------------------
B:--------------------------------------------------
G:-----10-12-----------10-------10------------------
D:-12--10-12--7-8------10-10-10-10-------10-11-12---
A:-12---8-10--7-8-------8-10-10--8-------10-11-12---
e:-10---------5-6----------8--8-----------8--9-10---
[ Tab from: http://www.guitartabs.cc/tabs/h/hives/main_offender_tab_ver_4.html ]
E:--------------------------------------------------|
B:--------------------------------------------------|
G:-----10-12------------10---12-10------------------|
D:-12--10-12---7--8---8-10-8-12-10-10-11-12---------|
A:-12---8-10---7--8---8--8-8-10--8-10-11-12---------|
e:-10----------5--6---6----6--------8--9-10---------|

Chorus:Strumming Fast

E:--------------------------------------------------|
B:--------------------------------------------------|
G:--------------------------------------------------|
D:-8-10--6------------------------------------------|
A:-8-10--6------------------------------------------|
e:-6--8--4------------------------------------------|




E:--------------------------------------------------|
B:--------------------------------------------------|
G:--------------------------------------------------|
D:-8-10-11------------------------------------------|
A:-8-10-11------------------------------------------|
e:-6--8--9------------------------------------------|



Tabman_007
Comments