Hives - Main Offender Chords & Tabs

 

Main Offender Chords & Tabs

Hives Chords & Tabs

Version: 6 Type: Bass Tab 0 ratings
1 star 2 stars 3 stars 4 stars 5 stars
comments

Main Offender Bass Tab

Standard Tuning

Good song, quality riff.  This is a play it as you see it tab, it's
all laid out in order of play.
Please rate this tab and leave comments and suggestions, cheers.

r = let note ring
/ = slide up
\ = slide down

Intro

G|-------------------------------------------------------|
D|-----------3-5-----------3-----------3-5-------3-----5-|
A|-0-3-4-5---------0-1---1---0-3-4-5---------0-1---1/3---| 
E|-------------------------------------------------------|

G|-----------------------------------------------------|
D|---------3-5-----------3-----------3-5-------3-----5-|
A|-3-4-5---------0-1---1--0-3-4-5---------0-1---1/3---|
E|-----------------------------------------------------|

End of Intro

G|---------------------------------------------------------|
D|---------3---3---------3---3---------3---3---------3---3-|
A|-0-3-4-5---5---5-3-4-5---5---0-3-4-5---5---5-3-4-5---5---|
E|---------------------------------------------------------|

Verse

G|-------------------------------------------------------|
D|-----------3-5-----------3-----------3-5-------3-----5-|
A|-0-3-4-5---------0-1---1---0-3-4-5---------0-1---1/3---| 
E|-------------------------------------------------------|

G|-----------------------------------------------------|
D|---------3-5-----------3-----------3-5-------3-----5-|
A|-3-4-5---------0-1---1--0-3-4-5---------0-1---1/3---|
E|-----------------------------------------------------|

G|-----------------------------------------------------|
D|---------3-5-----------3-----------3-5-------3-----5-|
A|-3-4-5---------0-1---1---0-3-4-5---------0-1---1/3---| 
E|-----------------------------------------------------|

G|-----------------------------------------------------|
D|---------3-5-----------3-----------3-5-------3-----5-|
A|-3-4-5---------0-1---1--0-3-4-5---------0-1---1/3---|
E|-----------------------------------------------------|

Bridge

G|-------------------------------|
D|-------------------------------|
A|-3-4-5r----------0-0-0-0-0-0-0-|
E|-------------------------------|

Chorus

G|-----------------------------------------------------------------|
D|---------------------------------3-3-3-3-3-3-3-3-5-5-5-5-5-3-5-7-|
A|-0-0-0-0-0-0-0-0-5-5-5-5-5-5-5-5---------------------------------|
E|-----------------------------------------------------------------|

G|-----------------------------------------------------------------|
D|---------------------------------3r--------------3---------------|
A|-0-0-0-0-0-0-0-0-5-5-5-5-5-5-5-3---------------------------------|
E|-----------------------------------------------------------------|

Verse

G|-------------------------------------------------------|
D|-----------3-5-----------3-----------3-5-------3-----5-|
A|-0-3-4-5---------0-1---1---0-3-4-5---------0-1---1/3---| 
E|-------------------------------------------------------|
[ Tab from: http://www.guitartabs.cc/tabs/h/hives/main_offender_btab_ver_6.html ]
G|-----------------------------------------------------|
D|---------3-5-----------3-----------3-5-------3-----5-|
A|-3-4-5---------0-1---1--0-3-4-5---------0-1---1/3---|
E|-----------------------------------------------------|

G|-----------------------------------------------------|
D|---------3-5-----------3-----------3-5-------3-----5-|
A|-3-4-5---------0-1---1---0-3-4-5---------0-1---1/3---| 
E|-----------------------------------------------------|

G|-----------------------------------------------------|
D|---------3-5-----------3-----------3-5-------3-----5-|
A|-3-4-5---------0-1---1--0-3-4-5---------0-1---1/3---|
E|-----------------------------------------------------|

rest

G|-------------------------------------------------------|
D|-----------3-5-----------3-----------3-5-------3-----5-|
A|-0-3-4-5---------0-1---1---0-3-4-5---------0-1---1/3---| 
E|-------------------------------------------------------|

G|-----------------------------------------------------|
D|---------3-5-----------3-----------3-5-------3-----5-|
A|-3-4-5---------0-1---1--0-3-4-5---------0-1---1/3---|
E|-----------------------------------------------------|

G|-----------------------------------------------------|
D|---------3-5-----------3-----------3-5-------3-----5-|
A|-3-4-5---------0-1---1---0-3-4-5---------0-1---1/3---| 
E|-----------------------------------------------------|

G|-----------------------------------------------------|
D|---------3-5-----------3-----------3-5-------3-----5-|
A|-3-4-5---------0-1---1--0-3-4-5---------0-1---1/3---|
E|-----------------------------------------------------|

Bridge

G|-------------------------------|
D|-------------------------------|
A|-3-4-5r----------0-0-0-0-0-0-0-|
E|-------------------------------|

Chorus

G|-----------------------------------------------------------------|
D|---------------------------------3-3-3-3-3-3-3-3-5-5-5-5-5-3-5-7-|
A|-0-0-0-0-0-0-0-0-5-5-5-5-5-5-5-5---------------------------------|
E|-----------------------------------------------------------------|

G|-----------------------------------------------------------------|
D|---------------------------------3r--------------3---------------|
A|-0-0-0-0-0-0-0-0-5-5-5-5-5-5-5-3---------------------------------|
E|-----------------------------------------------------------------|

Verse

G|-------------------------------------------------------|
D|-----------3-5-----------3-----------3-5-------3-----5-|
A|-0-3-4-5---------0-1---1---0-3-4-5---------0-1---1/3---| 
E|-------------------------------------------------------|

G|-----------------------------------------------------|
D|---------3-5-----------3-----------3-5-------3-----5-|
A|-3-4-5---------0-1---1--0-3-4-5---------0-1---1/3---|
E|-----------------------------------------------------|

G|-----------------------------------------|
D|-----------------------------------------|
A|-3-4-5r-5r-5r-5r-5r--------------------\-|
E|-----------------------------------------|
Comments