Hives - Mad Man Chords & Tabs

 

Mad Man Chords & Tabs

Hives Chords & Tabs

Version: 1 Type: Tab 0 ratings
1 star 2 stars 3 stars 4 stars 5 stars
comments

Mad Man Tab

This is mad man from the hives.
This is a favourite of mine and took me a little longer to
tab than some others that I've done because of the neat 
riff in there that I wanted to get right.

[ Tab from: http://www.guitartabs.cc/tabs/h/hives/mad_man_tab.html ]
 e|------------------------------------------------
 b|------------------------------------------------
 g|---------------------4-4-4-4-4-4-4-4------------  several
 d|---5-5-5-5--4-4-4-4--4-4-4-4-4-4-4-4------------   times
 a|---5-5-5-5--4-4-4-4--2-2-2-2-2-2-2-2------------
 E|---3-3-3-3--2-2-2-2-----------------------------


 e|------------------------------------------------
 b|------------------------------------------------
 g|--------------------------4-- let --------------  repeat
 d|-----0---------0----------4-- ring -------------  4 times
 a|-------4-0-------4-0---2--2---------------------
 E|---2-------2-2-------2--------------------------


There you go, enjoy.
Comments