Hives - Inspection Wise 1999 Chords & Tabs

 

Inspection Wise 1999 Chords & Tabs

Hives Chords & Tabs

Version: 3 Type: Tab 0 ratings
1 star 2 stars 3 stars 4 stars 5 stars
comments

Inspection Wise 1999 Tab

   
Tabbed by: Skunx (wax1@netcourrier.com)

THE HIVES LYRICS

Inspection Wise 1999

Do you know the secret hand shake - you best use it.
Here they come with ringing ears - social misfits.
Someone has got to go
just thought you should know and so it had to be
the one who held the key.
Check the time T-5 and you're still looking.
Too good to be true - so what's the secret.
Someone has got to go
just thought you should know and so it had to be
the one who held the key.

Intro:

e-|------------------------------------------------------------------------|
b-|--x-x-x-8-5---5---------------------------------------------------------|
g-|------------7-------------------------------------x-x-x-7-9-7-9---------|
D-|------------------x-x-x-5-3---3---x-x-x-5-3---3-------------------------|
A-|----------------------------5--------------5----------------------------|
E-|------------------------------------------------------------------------|

[ Tab from: http://www.guitartabs.cc/tabs/h/hives/inspection_wise_1999_tab_ver_3.html ]
Verse:
e-|------------------------------------------------------------------------|
b-|------------------------------------------------------------------------|
g-|--9----9-8-7------7----------9-9-----7-7-----9--------------------------|
D-|--9----9-8-7----9-7-7----7-7-9-9-9-9-7-7-7-7-9--------------------------|
A-|--7----7-6-5----9-5-7----7-7-7-7-9-9-5-5-7-7-7--------------------------|
E-|----------------7---5----5-5-----7-7-----5-5----------------------------|


Chorus:

x2
e-|------------------------------------------------------------------------|
b-|------------------------------------------------------------------------|
g-|-------------9-9--------------------------------------------------------|
D-|-----9-9-9-9-9-9-7-7----------------------------------------------------|
A-|-----9-9-9-9-7-7-7-7----------------------------------------------------|
E-|-----7-7-7-7-----5-5----------------------------------------------------|


Chords:

E	      E Eb D		     B  D  A  A E B D A E
  Do you know        the secret hand shake - you best use it.


...

B                  E
Someone has got to go

A			B		      E
just thought you should know and so it had to be

A
the one who held the key.
Comments