Hives - Here We Go Again Chords & Tabs

 

Here We Go Again Chords & Tabs

Hives Chords & Tabs

Version: 3 Type: Tab 0 ratings
1 star 2 stars 3 stars 4 stars 5 stars
comments

Here We Go Again Tab

   
The Hives.

Here we go again.

Intro.

e -------|
B -------|
G -------|
D ---4---|
A ---4---|
E ---2---|

Verse.

Just listen to the song to get the chords right.

Part 1.

e-------------------------------------------------------------------------|
B-------------------------------------------------------------------------|
G-------------------------------------------------------------------------|
D---4------7------9------9------7------7------4------4------2------4------|
A---4------7------9------9------7------7------4------4------2------4------|
E---2------5------7------7------5------5------2------2------0------2------|
[ Tab from: http://www.guitartabs.cc/tabs/h/hives/here_we_go_again_tab_ver_3.html ]
e-----------------------------------------------------------|
B-----------------------------------------------------------|
G----------------------------------------------------4------|
D---4------7------9------9------7------7------4------4------|
A---4------7------9------9------7------7------4------2------|
E---2------5------7------7------5------5------2-------------|

Just play that part during verse. Its a bit hard at first but give it fifteen minutes and it will work 
a charm!


Chorus.


e------------------------|
B------------------------|
G------------------------|
D---4------7------9------|
A---4------7------9------|
E---2------5------7------|


Thats that song!

Tabbed by Sebastian Larsson.

Mail me if you want another Hives song tabbed and i will tab it at once! =)

Mail: monseurfjant@hotmail.com
Comments