Hives - Hate To Say I Told You So Chords & Tabs

 

Hate To Say I Told You So Chords & Tabs

Hives Chords & Tabs

Version: 15 Type: Tab 0 ratings
1 star 2 stars 3 stars 4 stars 5 stars
comments

Hate To Say I Told You So Tab

   
-----------------------------------------------------------------------------
	            Hate To Say I Told U So - The hives
-----------------------------------------------------------------------------

Tabbed by: Lindsay
Email: guitarbabe_69@hotmail.com

Tuning: standard

intro:
e|-------------------------------------|
B|-------------------------------------|
G|-------------------------------------|
D|--------------------10--10-10--------| 8x
A|-12-12-12-10--10-10-8---8--8--8--8-8-|
E|-10-10-10-8---8--8------------6--6-6-|

verse:
e|-------------------------------------|
B|-------------------------------------|
G|-------------------------------------|
D|--------------------10--10-10--------| 8x
A|-12-12-12-10--10-10-8---8--8--8--8-8-|
E|-10-10-10-8---8--8------------6--6-6-|
[ Tab from: http://www.guitartabs.cc/tabs/h/hives/hate_to_say_i_told_you_so_tab_ver_15.html ]
chorus:
e|----------------------------------|
B|----------------------------------|
G|----------------------------------|
D|-12121212121212121212121212121212-|
A|-10101010101010101010101010101010-|
E|----------------------------------|

e|-------------------------------------|
B|-------------------------------------|
G|-------------------------------------|
D|--------------------10--10-10--------| 2x
A|-12-12-12-10--10-10-8---8--8--8--8-8-|
E|-10-10-10-8---8--8------------6--6-6-|

e|----------------------------------------------------|
B|----------------------------------------------------|
G|----------------------------------------------------|
D|-12121212121212121212121212121212121212121212121212-|
A|-10101010101010101010101010101010101010101010101010-|
E|----------------------------------------------------|

last note:
e|----|
B|----|
G|----|
D|----|
A|-12-|
E|-10-|

order:
intro
verse
chorus
verse (2nd verse is the same as the first)
chorus
{-bass solo-}
play the same chords as the verse
play last note and let ring
Comments