Hives - Die All Right Chords & Tabs

 

Die All Right Chords & Tabs

Hives Chords & Tabs

Version: 7 Type: Tab 0 ratings
1 star 2 stars 3 stars 4 stars 5 stars
comments

Die All Right Tab

   
The Hives : Die, All Right!
Full credit to the Hives and their producers!
Tabbed by Richard Pugh


Drum fill for intro!

Intro:
e|--------------------------------|
B|--------------------------------|
G|--------------------------------|
D|2---5---7---------5///9-9-9-9-9-|
A|2---5---7---------5///9-9-9-9-9-|
E|0---3---5---------3///7-7-7-7-7-| X3

Riff 1
e|--------------------------------|
B|--------------------------------|
G|--------------------------------|
D|2---5---7-----------------------|
A|2---5---7-----------------------|
E|0---3---5-----------------------| X1

Verse:
e|--------------------------------|
B|--------------------------------|
G|--------------------------------|
D|2---5---7---------5///9-9-9-9-9-|
A|2---5---7---------5///9-9-9-9-9-|
E|0---3---5---------3///7-7-7-7-7-| X6

e|--------------------------------|
B|--------------------------------|
G|--------------------------------|
D|10101010101010109-9-9-9-9-9-9-9-|
A|10101010101010109-9-9-9-9-9-9-9-|
E|8-8-8-8-8-8-8-8-7-7-7-7-7-7-7-7-| X1

e|--------------------------------|
B|--------------------------------|
G|--------------------------------|
D|2---5---7---------5///9-9-9-9-9-|
A|2---5---7---------5///9-9-9-9-9-|
E|0---3---5---------3///7-7-7-7-7-| X4

Prechorus:
e|------------------------------------------------|
B|------------------------------------------------|
G|------------------------------------------------|
D|10101010101010109-9-9-9-9-9-9-9-9-9-9-9-9-9-9-9-|
A|10101010101010109-9-9-9-9-9-9-9-9-9-9-9-9-9-9-9-|
E|8-8-8-8-8-8-8-8-7-7-7-7-7-7-7-7-7-7-7-7-7-7-7-7-| X1

Chorus:
e|----------------------------------------------------------------|
B|----------------------------------------------------------------|
G|9-9-9-9-9-9-12--7-7-7-7-7---------------------------------------|
D|9-9-9-9-9-9-12--7-7-7-7-7-------5-5-5-5-5-5-5-5-7-7-7-7-7-------|
A|7-7-7-7-7-7-10--5-5-5-5-5-------5-3-5-5-5-5-5-5-7-7-7-7-7-------|
E|--------------------------------3-3-3-3-3-3-3-3-5-5-5-5-5-------| X4

Drum fill from intro!

Verse:
e|--------------------------------|
B|--------------------------------|
G|--------------------------------|
D|2---5---7---------5///9-9-9-9-9-|
A|2---5---7---------5///9-9-9-9-9-|
E|0---3---5---------3///7-7-7-7-7-| X6

Prechorus:
e|------------------------------------------------|
B|------------------------------------------------|
G|------------------------------------------------|
D|10101010101010109-9-9-9-9-9-9-9-9-9-9-9-9-9-9-9-|
A|10101010101010109-9-9-9-9-9-9-9-9-9-9-9-9-9-9-9-|
E|8-8-8-8-8-8-8-8-7-7-7-7-7-7-7-7-7-7-7-7-7-7-7-7-| X1
[ Tab from: http://www.guitartabs.cc/tabs/h/hives/die_all_right_tab_ver_7.html ]
Chorus:
e|----------------------------------------------------------------|
B|----------------------------------------------------------------|
G|9-9-9-9-9-9-12--7-7-7-7-7---------------------------------------|
D|9-9-9-9-9-9-12--7-7-7-7-7-------5-5-5-5-5-5-5-5-7-7-7-7-7-------|
A|7-7-7-7-7-7-10--5-5-5-5-5-------5-3-5-5-5-5-5-5-7-7-7-7-7-------|
E|--------------------------------3-3-3-3-3-3-3-3-5-5-5-5-5-------| X3

Middle 8:
e|----------------------------------------------------------------|
B|----------------------------------------------------------------|
G|----------------------------------------------------------------|
D|141414141414171712121212121212129-9-9-9-9-9-9-9-9-9-9-9-9-9-9-9-|
A|141414141414171712121212121212129-9-9-9-9-9-9-9-9-9-9-9-9-9-9-9-|
E|121212121212151510101010101010107-7-7-7-7-7-7-7-7-7-7-7-7-7-7-7-| X1

e|--------------------------------|
B|--------------------------------|
G|--------------------------------|
D|2---5---7-----------------------|
A|2---5---7-----------------------|
E|0---3---5-----------------------| X1

e|------------------------------------------------------------------------------------------------|
B|------------------------------------------------------------------------------------------------|
G|------------------------------------------------------------------------------------------------|
D|2-2-2-2-2-2-2-2-2-2-2-2-2-2-2-2-9-9-9-9-9-9-9-9-9-9-9-9-9-9-9-9-12121212121212121212121212121212|
A|2-2-2-2-2-2-2-2-2-2-2-2-2-2-2-2-9-9-9-9-9-9-9-9-9-9-9-9-9-9-9-9-12121212121212121212121212121212|
E|0-0-0-0-0-0-0-0-0-0-0-0-0-0-0-0-7-7-7-7-7-7-7-7-7-7-7-7-7-7-7-7-10101010101010101010101010101010| X1

e|--------------------------------|
B|--------------------------------|
G|--------------------------------|
D|10101010101010101010101010101010|
A|10101010101010101010101010101010|
E|8-8-8-8-8-8-8-8-8-8-8-8-8-8-8-8-| X2

e|--------------------------------|
B|--------------------------------|
G|--------------------------------|
D|2---5---7---------5///9-9-9-9-9-|
A|2---5---7---------5///9-9-9-9-9-|
E|0---3---5---------3///7-7-7-7-7-| X1

e|----------------------------------------------------------------|
B|----------------------------------------------------------------|
G|----------------------------------------------------------------|
D|101010101010101010101010101010109-9-9-9-9-9-9-9-9-9-9-9-9-9-9-9-|
A|101010101010101010101010101010109-9-9-9-9-9-9-9-9-9-9-9-9-9-9-9-|
E|8-8-8-8-8-8-8-8-8-8-8-8-8-8-8-8-7-7-7-7-7-7-7-7-7-7-7-7-7-7-7-7-| X1


Chorus:
e|----------------------------------------------------------------|
B|----------------------------------------------------------------|
G|9-9-9-9-9-9-12127-7-7-7-7-7-7-7---------------------------------|
D|9-9-9-9-9-9-12127-7-7-7-7-7-7-7-5-5-5-5-5-5-5-5-7-7-7-7-7-7-7-7-|
A|7-7-7-7-7-7-10105-5-5-5-5-5-5-5-5-3-5-5-5-5-5-5-7-7-7-7-7-7-7-7-|
E|--------------------------------3-3-3-3-3-3-3-3-5-5-5-5-5-5-5-5-| X4

Outro:
e|--------------------------------|
B|--------------------------------|
G|--------------------------------|
D|9~~~~~~~~~~~~~~~~~~~~~~~~~~~~~~~|
A|9~~~~~~~~~~~~~~~~~~~~~~~~~~~~~~~|
E|7~~~~~~~~~~~~~~~~~~~~~~~~~~~~~~~| X1

The Hives at their best in my opinion. I've played along to the record with this tab and it sounds right,
so enjoy this tab and love The Hives!
Comments