Hives - Die All Right Chords & Tabs

 

Die All Right Chords & Tabs

Hives Chords & Tabs

Version: 6 Type: Tab 0 ratings
1 star 2 stars 3 stars 4 stars 5 stars
comments

Die All Right Tab

   
It looks long but thats coz I've tried to put the sections down in the right order
This might not be perfect but it's...alright 

INTRO 

E 0-3-5-3-3-7-7-7-7-7  	 	
B 0-3-5-3-3-7-7-7-7-7		
G 1-4-6-4-4-8-8-8-8-8	 x3
D 2-5-7-5-5-9-9-9-9-9		
A 2-5-7-5-5-9-9-9-9-9		
E 0-3-5-3-3-7-7-7-7-7	

then just:

E 0-3-5  	 	
B 0-3-5		
G 1-4-6  x1
D 2-5-7
A 2-5-7		
E 0-3-5	

VERSE (hey, I got a message…)

Same as the intro:

E 0-3-5-3-3-7-7-7-7-7  		
B 0-3-5-3-3-7-7-7-7-7	
G 1-4-6-4-4-8-8-8-8-8  x6	
D 2-5-7-5-5-9-9-9-9-9		
A 2-5-7-5-5-9-9-9-9-9		
E 0-3-5-3-3-7-7-7-7-7	

PRE-CHORUS 1 (Thank you Mr. CEO)

E 8 - 7
B 8 - 7      
G 9 - 8   x8 of each
D 10- 9
A 10- 9
E 8 - 7

And then back to the verse- (Hey I got some money)	

E 0-3-5-3-3-7-7-7-7-7  		
B 0-3-5-3-3-7-7-7-7-7	
G 1-4-6-4-4-8-8-8-8-8  x4	
D 2-5-7-5-5-9-9-9-9-9		
A 2-5-7-5-5-9-9-9-9-9		
E 0-3-5-3-3-7-7-7-7-7	

PRE-CHORUS 2 (slightly different) (Thank you Mr CEO)

E 8 - 7
B 8 - 7      
G 9 - 8   x8 of first, x16 of second
D 10- 9
A 10- 9
E 8 - 7

CHORUS ( I filled my pockets…)
[ Tab from: http://www.guitartabs.cc/tabs/h/hives/die_all_right_tab_ver_6.html ]
E -----------------------------------------------
B -----------------------------------------------
G 9-9-9-9-9-9----9-7-7-7-7------------------------ x4
D 9-9-9-9-9-9----9-7-7-7-7-5-5-5-5-5-5-5-5-7-7-7-7
A 7-7-7-7-7-7-10-7-5-5-5-5-5-5-5-5-5-5-5-5-7-7-7-7
E -------------------------3-3-3-3-3-3-3-3-5-5-5-5

Then VERSE x6

Then PRE-CHORUS 2

Then CHORUS x3 as usual

PRE BRIDGE (But not right now…)

E ----------
B ----------
G 9 - 7 - 4    	First two chords x8, third chord x16
D 9 - 7 - 4
A 7 - 5 - 2
E ----------

then just:

E 0-3-5  	 	
B 0-3-5		
G 1-4-6   x1
D 2-5-7
A 2-5-7		
E 0-3-5	

BRIDGE (Hey, why don’t you do the same…)

E ------------------
B ------------------
G 9 – 4 – 10 - 5      First 3 chords x16, 4th chord x32
D 9 – 4 – 10 - 5
A 7 – 2 – 8  - 3
E ------------------

Then VERSE riff:

E 0-3-5-3-3-7-7-7-7-7  	 	
B 0-3-5-3-3-7-7-7-7-7		
G 1-4-6-4-4-8-8-8-8-8	 x1
D 2-5-7-5-5-9-9-9-9-9		
A 2-5-7-5-5-9-9-9-9-9		
E 0-3-5-3-3-7-7-7-7-7

PRE CHORUS 3 (again, a bit different) (And the way I feel tonight)

E 8 - 7
B 8 - 7      
G 9 - 8   x16 of first, x16 of second
D 10- 9
A 10- 9
E 8 - 7

Then CHORUS x4 

Then, I can’t seem to get the ending chord sounding right, but try:

E 5
B 5
G 6	Bend it a bit as well
D 7
A 7
E 5

Done!
Comments