Hives - Die All Right Chords & Tabs

 

Die All Right Chords & Tabs

Hives Chords & Tabs

Version: 3 Type: Tab 2 ratings
1 star 2 stars 3 stars 4 stars 5 stars
comments

Die All Right Tab

        
          The hives - die, all right

intro: drums 


this is the main riff 
    e---------------------
    B---------------------
    G---------------------
    D--2--5--7---5-5\9-9-9
    A--2--5--7---5-5\9-9-9
    E--0--3--5---3-3\7-7-7         repeat 3 times 
  
       then 
          
    e--------------
    B--------------
    G--------------
    D---2--5--7----
    A---2--5--7----
    E---0--3--5----

the thank u mr. ceo part is like this i think
[ Tab from: http://www.guitartabs.cc/tabs/h/hives/die_all_right_tab_ver_3.html ]
    e------                                     e------
    B------                                     B------
    G------                                     G------
    D---9--                                     D---8--
    A---9--some times then quick change to      A---8--  listen to the song 
    E---7--                                     E---6--


the chours is not 100% correct but i think it is like this 
    
    e-------------------
    B-------------------
    G----9--------------
    D-9--9--7------5--7-   count your self
    A-9--7--7------5--7-
    E-7-----5------3--5-

my first tab so its not 100 % correct
Comments