Hives - Die All Right Chords & Tabs

 

Die All Right Chords & Tabs

Hives Chords & Tabs

Version: 2 Type: Tab 0 ratings
1 star 2 stars 3 stars 4 stars 5 stars
comments

Die All Right Tab

   
Artist: The Hives
Song: Die, All right!
Copied by: Robin Linderborg (robin_heter_jag@yahoo.se)


Verse:
e------------------------
b------------------------
g----------------4-4-4-4-
d-2--5--7-----55-4-4-4-4-
a-2--5--7-----55-2-2-2-2-
e-0--3--5-----33---------

Pre-Chorus:                       second time continue with:
e-------------------------------  -----------------
b-------------------------------  -----------------
g-5-5-5-5-5-5-5-4-4-4-4-4-4-4-4-  -4-4-4-4-4-4-4-4-
d-5-5-5-5-5-5-5-4-4-4-4-4-4-4-4-  -4-4-4-4-4-4-4-4-
a-3-3-3-3-3-3-3-2-2-2-2-2-2-2-2-  -2-2-2-2-2-2-2-2-
e-------------------------------  -----------------
[ Tab from: http://www.guitartabs.cc/tabs/h/hives/die_all_right_tab_ver_2.html ]
Chorus:
e--------------------------------------------------------------------|
b--------------------------------------------------------------------|
g-9-9-9-9-9-9-9--12-12---7-7-7-7-7-----------------------------------|
d-9-9-9-9-9-9-9--12-12---7-7-7-7-7-----5-5-5-5-5-5-5-5-5-5-7-7-7-7-7-|
a-7-7-7-7-7-7-7--10-10---5-5-5-5-5-----5-5-5-5-5-5-5-5-5-5-7-7-7-7-7-|
e--------------------------------------3-3-3-3-3-3-3-3-3-3-5-5-5-5-5-| 

Variation of chorus:
e---------------------------------------------------------------
b---------------------------------------------------------------
g-9-9-9-9-9-9--9--9-9-7-7-7-7-7---------------------------------
d-9-9-9-9-9-9--9--9-9-7-7-7-7-7-9-9-9-9-9-9-9-9-9-9-9-9-9-9-9-9-
a-7-7-7-7-7-7-10-10-7-5-5-5-5-5-9-9-9-9-9-9-9-9-9-9-9-9-9-9-9-9-
e-------------------------------7-7-7-7-7-7-7-7-7-7-7-7-7-7-7-7-

Bridge:   *=play 8 times
e---------------------------------------
b--*--*---------------------------------
g-9--9---*--*---*---*---*---*---*---*---
d-9--9--9--9--12--12--10--10--10--10--9-
a-7--7--9--9--12--12--10--10--10--10--9-
e-------7--7--10--10---8---8---8---8--7-

"Lead" during C-chord:
e-8-----
b---8---
g-----9-
d-------
a-------
e-------

End:
e-5----
b-6----
g-7----
d-7----
a-5----
e------
Comments