Hives - Die All Right Chords & Tabs

 

Die All Right Chords & Tabs

Hives Chords & Tabs

Version: 1 Type: Tab 0 ratings
1 star 2 stars 3 stars 4 stars 5 stars
comments

Die All Right Tab

   
Music X Tabs [http://www.mxtabs.net]

Band: The Hives
Song: Die, All Right!
Album: My new favourite Band
Tabbed by Simon Ng
Submitted:fahertyedward@hotmail.com

(just added a few changes)

Standard Tuning: E A D G B E

Chords Used: Em, (Power chords) G, A, A#, B, B#, C#

(Drum Solo)

Intro:

    Em G  A          B
E|---------------------------|
B|---------------------------|
G|---------------------------|
D|--2--5--7---7-7-7--9-9-9---|
A|--2--5--7---7-7-7--9-9-9---|
E|--0--3--5---5-5-5--7-7-7---|
[ Tab from: http://www.guitartabs.cc/tabs/h/hives/die_all_right_tab.html ]
E|---------------------------|
B|---------------------------|
G|---------------------------|
D|--2--5--7---7-7-7--9-9-9---|
A|--2--5--7---7-7-7--9-9-9---|
E|--0--3--5---5-5-5--7-7-7---|

E|---------------------------|
B|---------------------------|
G|---------------------------|
D|--2--5--7---7-7-7--9-9-9---|
A|--2--5--7---7-7-7--9-9-9---|
E|--0--3--5---5-5-5--7-7-7---|

E|----------------------|
A|----------------------|
G|----------------------|
D|--2--5--7---7-7-7-----|
A|--2--5--7---7-7-7-----|
E|--0--3--5---5-5-5-----|

verse 1:

E|---------------------------|
B|---------------------------|
G|---------------------------|
D|--2--5--7---7-7-7--9-9-9---|  
Comments