Hives - Die All Right Chords & Tabs

 

Die All Right Chords & Tabs

Hives Chords & Tabs

Version: 2 Type: Bass Tab 0 ratings
1 star 2 stars 3 stars 4 stars 5 stars
comments

Die All Right Bass Tab

By Paddy (sorry Si gone to Switzerland)
I did the intro ages ago but now ive done the whole song.
This is a BASS TAB.

Intro

G----------------------------------------------------
D----------------------------------------------------x3
A--2-5-7-555-9999------------------------------------
E----------------------------------------------------

On the last time, at the end play

G----------------------------------------------------
D----------------------------------------------------
A-5555555-0-44444------------------------------------
E----------------------------------------------------

Verse same as intro but x6

In the 6th one play
[ Tab from: http://www.guitartabs.cc/tabs/h/hives/die_all_right_btab_ver_2.html ]
G----------------------------------------------------
D----------------------------------------------------
A-5555555-0-444444444--------------------------------
E----------------------------------------------------

It then goes straight into-

Chorus
G----------------------------------------------------
D----------------------------------------------------
A--9999999-12-9-77777--------------------------------x4
E-------------------------555555-77777---------------

Then it goes into the verse again

Then into the chorus but after it before the bridge there is the verse x1. It follows 
straight into the bridge.

Im yet to figure out the bridge i will post it soon!
Comments