Hives - Declare Guerre Nucleaire Chords & Tabs

 

Declare Guerre Nucleaire Chords & Tabs

Hives Chords & Tabs

Version: 2 Type: Tab 0 ratings
1 star 2 stars 3 stars 4 stars 5 stars
comments

Declare Guerre Nucleaire Tab

   
----------------------------------------------------------------------------
			 Declare Guerre Nucleaire - The Hives
----------------------------------------------------------------------------
Tabbed by:Matt Magnusson
Email:~~~~~~

Tuning: Standard EADGBe

Opening
e|-7--2--3--0--2-----1-----------------------------------------|
B|-8--3--4--1--3-----2-----------------------------------------|
G|-9--4--5--2--4-----3-----------------------------------------|
D|-9--4--5--2--4-----3-----------------------------------------|
A|-7--2--3--0--2-----1-----------------------------------------|
E|-------------------------------------------------------------|
[ Tab from: http://www.guitartabs.cc/tabs/h/hives/declare_guerre_nucleaire_tab_ver_2.html ]
Verse and Rest of Song
e|-------------------------------------------------------------|
B|-------------------------------------------------------------|
G|-1-1-1-0-4-4-4-4-4/6-6/8-8-8-8-------------------------------|
D|-2-2-2-0-5-5-5-5-5/7-7/9-9-9-9-------------------------------|
A|-2-2-2-0-5-5-5-5-5/7-7/9-9-9-9-------------------------------|
E|-0-0-0-0-3-0-3-0-3/5-5/7-7-7-7-------------------------------|

And that's all folks, the held out note is just an E chord on all 6 strings

| /  slide up
| \  slide down
| h  hammer-on
| p  pull-off
| ~  vibrato
| +  harmonic
| x  Mute note
===============================================================================
Comments