Hives - Declare Guerre Nuclaire Chords & Tabs

 

Declare Guerre Nuclaire Chords & Tabs

Hives Chords & Tabs

Version: 1 Type: Tab 0 ratings
1 star 2 stars 3 stars 4 stars 5 stars
comments

Declare Guerre Nuclaire Tab

THE HIVES,Declare guerre Nuclaire
[ Tab from: http://www.guitartabs.cc/tabs/h/hives/declare_guerre_nuclaire_tab.html ]
~=let ring
intro
 E|------------------------------------------|
 B|------------------------------------------|
 G|------------------------------------------|
 D|--14--9-10--7-9---4~----------------------|
 A|------------------------------------------|
 E|--12--7-8---5-7---2~----------------------|

riff 1
 E|----------------------------------0~------|
 B|----------------------------------0~------|
 G|--------------2-2-4-4-2-----------1~------| not sure
 D|--2-2---2-----2-2-4-4-2-----------2~------| about the last
 A|--2-2---2-----0-0-2-2-0-----------2~------|   strum
 E|--0-0-3-0-3-4-----------3---------0~------|
Comments