Hives - Dead Quote Olympics Chords & Tabs

 

Dead Quote Olympics Chords & Tabs

Hives Chords & Tabs

Version: 2 Type: Tab

Dead Quote Olympics Tab

This one is

100% correct!


Intro:

"The Dead Quote Olympics!"

Nick & Vig
e--------------------------------------|
b--------------------------------------|
g-----------------7-7-7-7-7-7-7-7------|
d-7-7-7-7-7-7-7-7-7-7-7-7-7-7-7-7------|
a-7-7-7-7-7-7-7-7-5-5-5-5-5-5-5-5------|
e-5-5-5-5-5-5-5-5----------------------|  x4

Verse:

"Can't make an ommellete without breakin an egg!"

Vig
e-----------------------------------|
b-2---7---2---7---2---7---2---7-----|
g-2---7---2---7---2---7---2---7-----|
d-2---7---2---7---2---7---2---7-----|
a-----------------------------------|
e-----------------------------------|

"If you had enough of the thoughts of your own"

Nick
e-----------------------------------------|
b-----------------------------------------|
g------7-7-------7-7-------7-7------------|
d-7-7--7-7--7-7--7-7--7-7--7-7------------|
a-7-7--5-5--7-7--5-5--7-7--5-5------------|
e-5-5-------5-5-------5-5-----------------|


Chorus:

"The Dead Quote Olympics!"

Nick & Vig
e--------------------------------------|
b--------------------------------------|
g-----------------7-7-7-7-7-7-7-7------|
d-7-7-7-7-7-7-7-7-7-7-7-7-7-7-7-7------|
a-7-7-7-7-7-7-7-7-5-5-5-5-5-5-5-5------|
e-5-5-5-5-5-5-5-5----------------------|  x4


Verse:

"This time you really got something"

Vig
e-----------------------------------|
b-2---7---2---7---2---7---2---7-----|
g-2---7---2---7---2---7---2---7-----|
d-2---7---2---7---2---7---2---7-----|
a-----------------------------------|
e-----------------------------------|


"Yes, they were smart but they're dead"
[ Tab from: http://www.guitartabs.cc/tabs/h/hives/dead_quote_olympics_tab_ver_2.html ]
Nick
e-----------------------------------------|
b-----------------------------------------|
g------7-7-------7-7-------7-7------------|
d-7-7--7-7--7-7--7-7--7-7--7-7------------|
a-7-7--5-5--7-7--5-5--7-7--5-5------------|
e-5-5-------5-5-------5-5-----------------|


Chorus:

Nick & Vig
e--------------------------------------|
b--------------------------------------|
g-----------------7-7-7-7-7-7-7-7------|
d-7-7-7-7-7-7-7-7-7-7-7-7-7-7-7-7------|
a-7-7-7-7-7-7-7-7-5-5-5-5-5-5-5-5------|
e-5-5-5-5-5-5-5-5----------------------|  x4


Verse:

"You didn't read between the lines"

Nick
e---------------------------|
b---------------------------|
g---------------------------|
d---------------------------|
a-2-0-1-1--2-0-1-1----------|
e---------------------------|

When Nick's doing a-1-1 Vig does

Vig
e--------------------------|
b--------------------------|
g--------------------------|
d-3-3--3-3-----------------|
a-1-1--1-1-----------------|
e--------------------------|

"Well, weekends and standards and pays"

Nick
e-----------------------------------------|
b-----------------------------------------|
g------7-7-------7-7-------7-7------------|
d-7-7--7-7--7-7--7-7--7-7--7-7------------|
a-7-7--5-5--7-7--5-5--7-7--5-5------------|
e-5-5-------5-5-------5-5-----------------|


Chorus:

Nick & Vig
e--------------------------------------|
b--------------------------------------|
g-----------------7-7-7-7-7-7-7-7------|
d-7-7-7-7-7-7-7-7-7-7-7-7-7-7-7-7------|
a-7-7-7-7-7-7-7-7-5-5-5-5-5-5-5-5------|
e-5-5-5-5-5-5-5-5----------------------|  x8

Brought to you by Mr. Arson. :)