Hives - B Is For Brutus Chords & Tabs

 

B Is For Brutus Chords & Tabs

Hives Chords & Tabs

Version: 3 Type: Tab 0 ratings
1 star 2 stars 3 stars 4 stars 5 stars
comments

B Is For Brutus Tab

Song: B is for Brutus
Band: The Hives
Album: Tyrannosaurus Hives

Standard Tuning (EADGBe)

             
Intro
e)---------------------------------------------------|   
B)---------------------------------------------------|
G)---------------------------------------------------|
D)-----3/7----3/7----3/7-----2-2-2-------------------|
A)-----3/7----3/7----3/7-----2-2-2--3-2-3-4-5-3-2-0--|
E)-----1/5----1/5----1/5-----0-0-0-------------------|


main riff
e)-------------------------------------------------------------|
B)-------------------------------------------------------------|
G)-------------------------------------------------------------|
D)-------------------------------------------------------------|
A)---------7-6-5-0-----3-2-3-0-----7-6-5-0--3-2-3-4-5-3-2-0----|
E)-----0-5---------0-3---------0-5-----------------------------|


Verse
e)-------------------------------------------------------------|
B)-------------------------------------------------------------|
G)-------------------------------------------------7---9-------|
D)-----7-------------------------------------------7---9-------|
A)-----7-------------------------------------------5---7-------|
E)-----5------0-5-0-5---------0-5-0-5--------0-5-0-------------|


e)-------------------------------------------------|
B)-------------------------------------------------|
G)-----7--------9-7-5-----9-7-5------9-7-5-7-9-----|
D)-----------------------------------------7-9-----|
A)-----------------------------------------5-7-----|
E)-------------------------------------------------|

play 2X then:

Chorus
e)---------------------------------------------|
B)---------------------------------------------|
G)------5-(hold)-7-(hold)--10-9---7-9-10-------|
D)------5-(hold)-7-(hold)--10-9---7-9-10-7-----|
A)------3-(hold)-5-(hold)--8--7---5-7-8--7-----|
E)---------------------------------------5-----|


interlude
e)-------------------------------------------------------------|
B)-------------------------------------------------------------|
G)-------------------------------------------------------------|
D)-------------------------------------------------------------|
A)---------7-6-5-0-----3-2-3-0-----7-6-5-0--3-2-3-4-5-3-2-0----|
E)-----0-5---------0-3---------0-5-----------------------------|

e)-------------------------------------------------------------|
B)-------------------------------------------------------------|
G)-------------------------------------------------------------|
D)-------------------------------------------------------------|
A)---------7-6-5-0-----3-2-3-0-----7-6-5-0--3-2-3-4-5-3-2-0----|
E)-----0-5---------0-3---------0-5-----------------------------|

[ Tab from: http://www.guitartabs.cc/tabs/h/hives/b_is_for_brutus_tab_ver_3.html ]
Verse
e)-------------------------------------------------------------|
B)-------------------------------------------------------------|
G)-------------------------------------------------7---9-------|
D)-----7-------------------------------------------7---9-------|
A)-----7-------------------------------------------5---7-------|
E)-----5------0-5-0-5---------0-5-0-5--------0-5-0-------------|


e)-------------------------------------------------|
B)-------------------------------------------------|
G)-----7--------9-7-5-----9-7-5------9-7-5-7-9-----|
D)-----------------------------------------7-9-----|
A)-----------------------------------------5-7-----|
E)-------------------------------------------------|

play 2X, then

Chorus
e)---------------------------------------------|
B)---------------------------------------------|
G)------5-(hold)-7-(hold)--10-9---7-9-10-------|
D)------5-(hold)-7-(hold)--10-9---7-9-10-7-----|
A)------3-(hold)-5-(hold)--8--7---5-7-8--7-----|
E)---------------------------------------5-----|


interlude 2
e)----------------------------------------------------------------------|
B)----------------------------------------------------------------------|
G)---------------------------14-(hold)----------------------------------|
D)----------------14-(hold)----------------7-7-7-7-7--------------------|
A)-----12-(hold)---------------------------7-7-7-7-7---3-2-3-4-5-3-2-0--|
E)-----------------------------------------5-5-5-5-5--------------------|


e)-------------------------------------------------------------|
B)-------------------------------------------------------------|
G)-------------------------------------------------------------|
D)-------------------------------------------------------------|
A)---------7-6-5-0-----3-2-3-0-----7-6-5-0--3-2-3-4-5-3-2-0----|
E)-----0-5---------0-3---------0-5-----------------------------|


e)------------------------------------------------------|
B)------------------------------------------------------|
G)------------------------------------------5-5-5-7-----|
D)------------------------------------------5-5-5-7-----|
A)---------7-6-5-0-----3-2-3-0-----7-6-5-0--3-3-3-5-----|
E)-----0-5---------0-3---------0-5----------------------|


outro
e)------------------------------------------------------------------|
B)------------------------------------------------------------------|
G)------------------------------------------------------------------|
D)-----7-7-7/5--2--3-3-3/5--7-7-7/5--2--3-3-3/5---------------------|
A)-----7-7-7/5--2--3-3-3/5--7-7-7/5--2--3-3-3/5--3-2-3-4-5-3-2-0----|
E)-----5-5-5/3--0--1-1-1/3--5-5-5/3--0--1-1-1/3---------------------|


e)---------------------|
B)---------------------|
G)-----10-9---7-9-10---|
D)-----10-9---7-9-10-7-|
A)-----8--7---5-7-8--7-|
E)-------------------5-|
Comments