Hives - Antidote Chords & Tabs

 

Antidote Chords & Tabs

Hives Chords & Tabs

Version: 2 Type: Tab 0 ratings
1 star 2 stars 3 stars 4 stars 5 stars
comments

Antidote Tab

Tabbed by: Skunx (wax1@netcourrier.com)

THE HIVES - ANTIDOTE


Intro:
e-|-------------------------------------------------------------------|
B-|-------------------------------------------------------------------|
G-|----------------------8-8-8----------------------------8-8-8-------|
D-|---8-8--8--8-8--8-8-8-8-8-8-10-10--10--10-10--10-10-10-8-8-8-------|
A-|---8-8--8--8-8--8-8-8-6-6-6-10-10--10--10-10--10-10-10-6-6-6-------|
E-|---6-6--6--6-6--6-6-6--------8--8---8---8--8---8--8--8-------------|
Play this six times
The rythm is never exactly the same.. so you have listen to it
[ Tab from: http://www.guitartabs.cc/tabs/h/hives/antidote_tab_ver_2.html ]
Verse:
e-|-------------------------------------------------------------------|
B-|-------------------------------------------------------------------|
G-|---------------8---------------------------------------------------|
D-|---8-10-8-10---8-8-12-10-------------------------------------------|
A-|---8-10-8-10---6-8-12-10-------------------------------------------|
E-|---6--8-6--8-----6-10--8-------------------------------------------|
Bitter taste
In your mouth
It's too late to get it out
Everytime
I'm around
you try to leave but
I'll be standing in your way

Chorus:
e-|-------------------------------------------------------------------|
B-|-------------------------------------------------------------------|
G-|----------------------8-8-8----------------------------8-8-8-------|
D-|---8-8--8--8-8--8-8-8-8-8-8-10-10--10--10-10--10-10-10-8-8-8-------|
A-|---8-8--8--8-8--8-8-8-6-6-6-10-10--10--10-10--10-10-10-6-6-6-------|
E-|---6-6--6--6-6--6-6-6--------8--8---8---8--8---8--8--8-------------|
You are antidote I got the poison
Comments