Hives - Abra Cadaver Chords & Tabs

 

Abra Cadaver Chords & Tabs

Hives Chords & Tabs

Version: 2 Type: Tab 0 ratings
1 star 2 stars 3 stars 4 stars 5 stars
comments

Abra Cadaver Tab

Guitar 1
                                                                
E||------|--7--7--7--7--7--7--7--7--|--7--7--7--7--7--7--7--0--|
B||------|--7--7--7--7--7--7--7--7--|--7--7--7--7--7--7--7--0--|
G||------|--8--8--8--8--8--8--8--8--|--8--8--8--8--8--8--8--0--|
D||------|--9--9--9--9--9--9--9--9--|--9--9--9--9--9--9--9--0--|
A||------|--9--9--9--9--9--9--9--9--|--9--9--9--9--9--9--9--0--|
E||------|--7--7--7--7--7--7--7--7--|--7--7--7--7--7--7--7--0--|


                                                      
--3--3--3--0--5--5--5--0--|--7--7--7--7--7--7--7--0--|
--3--3--3--0--5--5--5--0--|--7--7--7--7--7--7--7--0--|
--4--4--4--0--6--6--6--0--|--8--8--8--8--8--8--8--0--|
--5--5--5--0--7--7--7--0--|--9--9--9--9--9--9--9--0--|
--5--5--5--0--7--7--7--0--|--9--9--9--9--9--9--9--0--|
--3--3--3--0--5--5--5--0--|--7--7--7--7--7--7--7--0--|


                                                      
--7--7--7--7--7--7--7--0--|--7--7--7--7--7--7--7--0--|
--7--7--7--7--7--7--7--0--|--7--7--7--7--7--7--7--0--|
--8--8--8--8--8--8--8--0--|--8--8--8--8--8--8--8--0--|
--9--9--9--9--9--9--9--0--|--9--9--9--9--9--9--9--0--|
--9--9--9--9--9--9--9--0--|--9--9--9--9--9--9--9--0--|
--7--7--7--7--7--7--7--0--|--7--7--7--7--7--7--7--0--|


                                                      
--3--3--3--0--5--5--5--0--|--7--7--7--7--7--7--7--7--|
--3--3--3--0--5--5--5--0--|--7--7--7--7--7--7--7--7--|
--4--4--4--0--6--6--6--0--|--8--8--8--8--8--8--8--8--|
--5--5--5--0--7--7--7--0--|--9--9--9--9--9--9--9--9--|
--5--5--5--0--7--7--7--0--|--9--9--9--9--9--9--9--9--|
--3--3--3--0--5--5--5--0--|--7--7--7--7--7--7--7--7--|


                                                      
--------------------------|--------------------------|
--------------------------|--------------------------|
--------------------------|--------------------------|
--------------------------|--------------------------|
--------------------------|--------------------------|
--7--7--5--7--7--7--5--7--|--7--7--5--7--7--7--5--0--|


                                                      
--------------------------|--------------------------|
--------------------------|--------------------------|
--------------------------|--------------------------|
--------------------------|--------------------------|
--------------------------|--------------------------|
--3--3--3--0--5--5--5--0--|--7--7--5--7--7--7--5--7--|


                                                      
--------------------------|--------------------------|
--------------------------|--------------------------|
--------------------------|--------------------------|
--------------------------|--------------------------|
--------------------------|--------------------------|
--7--7--5--7--7--7--5--7--|--7--7--5--7--7--7--5--0--|


                                                      
--------------------------|--------------------------|
--------------------------|--------------------------|
--------------------------|--------------------------|
--------------------------|--------------------------|
--------------------------|--------------------------|
--3--3--3--0--5--5--5--0--|--7--7--5--7--7--7--5--7--|


                                                      
--------------------------|--------------------------|
--------------------------|--------------------------|
--------------------------|--------------------------|
--------------------------|--------------------------|
--------------------------|--------------------------|
--7--7--5--7--7--7--5--7--|--7--7--5--7--7--7--5--0--|


                                                      
--------------------------|--------------------------|
--------------------------|--------------------------|
--------------------------|--------------------------|
--------------------------|--------------------------|
--------------------------|--------------------------|
--3--3--3--0--5--5--5--0--|--7--7--5--7--7--7--5--7--|


                                                      
--------------------------|--------------------------|
--------------------------|--------------------------|
--------------------------|--------------------------|
--------------------------|--------------------------|
--------------------------|--------------------------|
--7--7--5--7--7--7--5--7--|--7--7--5--7--7--7--5--0--|


                                                      
--------------------------|--------------------------|
--------------------------|--------------------------|
--------------------------|--------------------------|
--------------------------|--------------------------|
--------------------------|--------------------------|
--3--3--3--0--5--5--5--0--|--7--7--5--7--7--7--5--7--|


                                                      
--7--7--7--7--7--7--7--7--|--7--7--7--7--7--7--7--0--|
--7--7--7--7--7--7--7--7--|--7--7--7--7--7--7--7--0--|
--8--8--8--8--8--8--8--8--|--8--8--8--8--8--8--8--0--|
--9--9--9--9--9--9--9--9--|--9--9--9--9--9--9--9--0--|
--9--9--9--9--9--9--9--9--|--9--9--9--9--9--9--9--0--|
--7--7--7--7--7--7--7--7--|--7--7--7--7--7--7--7--0--|


                                                      
--3--3--3--0--5--5--5--0--|--7--7--7--7--7--7--7--0--|
--3--3--3--0--5--5--5--0--|--7--7--7--7--7--7--7--0--|
--4--4--4--0--6--6--6--0--|--8--8--8--8--8--8--8--0--|
--5--5--5--0--7--7--7--0--|--9--9--9--9--9--9--9--0--|
--5--5--5--0--7--7--7--0--|--9--9--9--9--9--9--9--0--|
--3--3--3--0--5--5--5--0--|--7--7--7--7--7--7--7--0--|


                                                      
--7--7--7--7--7--7--7--7--|--7--7--7--7--7--7--7--0--|
--7--7--7--7--7--7--7--7--|--7--7--7--7--7--7--7--0--|
--8--8--8--8--8--8--8--8--|--8--8--8--8--8--8--8--0--|
--9--9--9--9--9--9--9--9--|--9--9--9--9--9--9--9--0--|
--9--9--9--9--9--9--9--9--|--9--9--9--9--9--9--9--0--|
--7--7--7--7--7--7--7--7--|--7--7--7--7--7--7--7--0--|


                                                      
--3--3--3--0--5--5--5--0--|--7--7--7--7--7--7--7--0--|
--3--3--3--0--5--5--5--0--|--7--7--7--7--7--7--7--0--|
--4--4--4--0--6--6--6--0--|--8--8--8--8--8--8--8--0--|
--5--5--5--0--7--7--7--0--|--9--9--9--9--9--9--9--0--|
--5--5--5--0--7--7--7--0--|--9--9--9--9--9--9--9--0--|
--3--3--3--0--5--5--5--0--|--7--7--7--7--7--7--7--0--|

[ Tab from: http://www.guitartabs.cc/tabs/h/hives/abra_cadaver_tab_ver_2.html ]
                                                      
--------------------------|--------------------------|
--------------------------|--------------------------|
--------------------------|--------------------------|
--------------------------|--------------------------|
--------------------------|--------------------------|
--7--7--5--7--7--7--5--7--|--7--7--5--7--7--7--5--0--|


                                                      
--------------------------|--------------------------|
--------------------------|--------------------------|
--------------------------|--------------------------|
--------------------------|--------------------------|
--------------------------|--------------------------|
--3--3--3--0--5--5--5--0--|--7--7--5--7--7--7--5--7--|


                                                      
--------------------------|--------------------------|
--------------------------|--------------------------|
--------------------------|--------------------------|
--------------------------|--------------------------|
--------------------------|--------------------------|
--7--7--5--7--7--7--5--7--|--7--7--5--7--7--7--5--0--|


                                                      
--------------------------|--------------------------|
--------------------------|--------------------------|
--------------------------|--------------------------|
--------------------------|--------------------------|
--------------------------|--------------------------|
--3--3--3--0--5--5--5--0--|--7--7--5--7--7--7--5--7--|


                                                      
--------------------------|--------------------------|
--------------------------|--------------------------|
--------------------------|--------------------------|
--------------------------|--------------------------|
--------------------------|--------------------------|
--7--7--5--7--7--7--5--7--|--7--7--5--7--7--7--5--0--|


                                                      
--------------------------|--------------------------|
--------------------------|--------------------------|
--------------------------|--------------------------|
--------------------------|--------------------------|
--------------------------|--------------------------|
--3--3--3--0--5--5--5--0--|--7--7--5--7--7--7--5--7--|


                                                      
--------------------------|--------------------------|
--------------------------|--------------------------|
--------------------------|--------------------------|
--------------------------|--------------------------|
--------------------------|--------------------------|
--7--7--5--7--7--7--5--7--|--7--7--5--7--7--7--5--0--|


                                                      
--------------------------|--------------------------|
--------------------------|--------------------------|
--------------------------|--------------------------|
--------------------------|--------------------------|
--------------------------|--------------------------|
--3--3--3--0--5--5--5--0--|--7--7--5--7--7--7--5--7--|


                                                      
--7--7--7--7--7--7--7--7--|--7--7--7--7--7--7--7--0--|
--7--7--7--7--7--7--7--7--|--7--7--7--7--7--7--7--0--|
--8--8--8--8--8--8--8--8--|--8--8--8--8--8--8--8--0--|
--9--9--9--9--9--9--9--9--|--9--9--9--9--9--9--9--0--|
--9--9--9--9--9--9--9--9--|--9--9--9--9--9--9--9--0--|
--7--7--7--7--7--7--7--7--|--7--7--7--7--7--7--7--0--|


                                                      
--3--3--3--0--5--5--5--0--|--7--7--7--7--7--7--7--0--|
--3--3--3--0--5--5--5--0--|--7--7--7--7--7--7--7--0--|
--4--4--4--0--6--6--6--0--|--8--8--8--8--8--8--8--0--|
--5--5--5--0--7--7--7--0--|--9--9--9--9--9--9--9--0--|
--5--5--5--0--7--7--7--0--|--9--9--9--9--9--9--9--0--|
--3--3--3--0--5--5--5--0--|--7--7--7--7--7--7--7--0--|


                                                      
--7--7--7--7--7--7--7--7--|--7--7--7--7--7--7--7--0--|
--7--7--7--7--7--7--7--7--|--7--7--7--7--7--7--7--0--|
--8--8--8--8--8--8--8--8--|--8--8--8--8--8--8--8--0--|
--9--9--9--9--9--9--9--9--|--9--9--9--9--9--9--9--0--|
--9--9--9--9--9--9--9--9--|--9--9--9--9--9--9--9--0--|
--7--7--7--7--7--7--7--7--|--7--7--7--7--7--7--7--0--|


                                                      
--3--3--3--0--5--5--5--0--|--7--7--7--7--7--7--7--0--|
--3--3--3--0--5--5--5--0--|--7--7--7--7--7--7--7--0--|
--4--4--4--0--6--6--6--0--|--8--8--8--8--8--8--8--0--|
--5--5--5--0--7--7--7--0--|--9--9--9--9--9--9--9--0--|
--5--5--5--0--7--7--7--0--|--9--9--9--9--9--9--9--0--|
--3--3--3--0--5--5--5--0--|--7--7--7--7--7--7--7--0--|


                                                      
--------------------------|--------------------------|
--------------------------|--------------------------|
--------------------------|--------------------------|
--------------------------|--------------------------|
--------------------------|--------------------------|
--7--7--5--7--7--7--5--7--|--7--7--5--7--7--7--5--7--|


                                                      
--------------------------|--------------------------|
--------------------------|--------------------------|
--------------------------|--------------------------|
--------------------------|--------------------------|
--------------------------|--------------------------|
--7--7--5--7--7--7--5--7--|--7--7--5--7--7--7--5--7--|


                                                      
--------------------------|--------------------------|
--------------------------|--------------------------|
--------------------------|--------------------------|
--------------------------|--------------------------|
--------------------------|--------------------------|
--7--7--5--7--7--7--5--7--|--7--7--5--7--7--7--5--7--|


                                                                           
--------------------------|--------------------------|--7----------------||
--------------------------|--------------------------|--7----------------||
--------------------------|--------------------------|--8----------------||
--------------------------|--------------------------|--9----------------||
--------------------------|--------------------------|--9----------------||
--7--7--5--7--7--7--5--7--|--7--7--5--7--7--7--5--7--|--7----------------||


Good luck and enjoy.

-Hawkeye
Comments