Hives - A Little More For Little You Chords & Tabs

 

A Little More For Little You Chords & Tabs

Hives Chords & Tabs

Version: 1 Type: Tab 0 ratings
1 star 2 stars 3 stars 4 stars 5 stars
comments

A Little More For Little You Tab

   
The hives a lttle more for little you

this is 100% correct so enjoy the wonders of the hives. both guitars play basically the same 
chords but different timming which u need to listen out for.
for a better more crisp tone guitar one uses the D on the tenth 
threat and guitar 2 uses the D on the 5th fret. also for the riff played throughout guitar 
2 carries the chord on as the riff is played on top

guitar 1   nicholaus arson, used with crunch tone pedal for the effects.
guitar 2 vigilante.

Riff played throuout
GUITAR 1 
E|--------------------------------------
B|--------------------------------------
G|--------------------------------------
D|--------------------------------------
A|-------5------------------------------
E|---7-7---7-5-7------------------------

This is the main layout for both verses except different chord patterns 
[ Tab from: http://www.guitartabs.cc/tabs/h/hives/a_little_more_for_little_you_tab.html ]
FOR GUITAR 1, GUITAR 2 IS SAME BUT CHORDS CARRIED ON FOR RIFF AND OFF THE BEAT
  D       Bm                  D       G                         D       G      A       D
E-10------7------------|----|-10------3------------|------------10------333333-555555--7~~~~~~~~~~~~~~~~
B-10------7------------|----|-10------3------------|------------10------333333-555555--9~~~~~~~~~~~~~~~~
G-11------7------------|----|-11------5------------|------------11------555555-666666--9~~~~~~~~~~~~~~~~
D-12--X5--9--X3--RIFF--|-X4-|-12--X5--4--X3--RIFF--|--REPEAT 2--12--X5--444444-777777--9~~LET~RING~~~~~
A-12------9------------|----|-12------4------------|---THEN-----12------444444-777777--7~~~~~~~~~~~~~~~~
E-10------7------------|----|-10------3------------|------------10------333333-555555-------------------

THE LAST D IS THE D GUITAR 2 COULD USE THROUGHOUT TO GET THAT GANGLY SOUND
CHORUS

  D                Bm              G        A                            D
E-1010101010101010-77777777-|----|-33333333-55555555-|-------------------7~~~~~~~~~~~~~
B-1010101010101010-77777777-|----|-33333333-55555555-|-------------------9~~~~~~~~~~~~~
G-1111111111111111-77777777-|----|-55555555-66666666-|-------------------9~~~~~~~~~~~~~
D-1212121212121212-99999999-|-X3-|-44444444-77777777-|-WHOLE X 2 THEN----9~~~LET RING~~
A-1212121212121212-99999999-|----|-44444444-77777777-|-------------------7~~~~~~~~~~~~~
E-1010101010101010-77777777-|----|-33333333-55555555-|---------------------------------

  THIS IS BASICALLY THE FISRTS CHORDS OF D+Bm X3 THEN ADD THE G's+D'S BUT THEN REPEAT THE WHOLE THING
BUT ON THE END ADDING THE LAST RINGING D

THE NEXT VERSE IS PLAYED THE IN THE SAME STYLE BUT IS HAS SLIGHTLY DIFFERENT CHORD PATTERNS.
    D Bm D Bm D G D Bm D Bm D Bm D G D G A

YOU THEN REPEAT VERSE TILL NECCASSERY WHICH DOES'T CHANGE APART FROM AMOUNT OF TIMES REPEATED.

THIS IS THE WHOLE SONG AND I HOPE U ENJOY. PLEASE RATE!!

TABBED BY jENNYd
Comments