Hippos - So Lonely Chords & Tabs

 

So Lonely Chords & Tabs

Hippos Chords & Tabs

Version: 2 Type: Bass Tab 0 ratings
1 star 2 stars 3 stars 4 stars 5 stars
comments

So Lonely Bass Tab

THE HIPPOS - SO LONELY (BASSE)

J'adore cette reprise du vieu tube des Police, mais bon j'pense que ceux qui on essay? de jouer ce titre 
sont rendus compte, comme moi, que la ligne de basse est beaucoup plus complexe que celle de l'originale. 
c'est rien de le dire...
Voil? personellement comment je joue ce morceau, mais je ne suis vraiment pas sur que cela colle ? 100% 
le disque des Hippos, enfin pour s'amuser avec des potes c'est parfait... Et au fait ne soyez pas effray? 
la longueur de la tablature, j'ai essay? de marquer chaque variations, mais on pourrait r?sumer ?a au deux riff d'intro et en disant qu'? la fin un passage est jou? la gamme au dessus.

En fait ce morceau est accessible ? tous (la preuve je n'ai que 2 mois de basse derri?re moi!), alors 
vous plaisir.

Si vous avez une autre version, des remarques ou d'autre tab des hippos (guitare et basse) :
For any correction, or if you have some Hippos tab (Guit. and Bass):

matthieu.gaudet@free.fr


INTRO(couplet/verse)
                            <------------------1--------------------------------|
G||-------------------------------------|---------------------------------------|
D||o-----4------------------------------|-----4---------------------------------|
A||o-5-5---5----2/5h7/4-2-2-4-5---------|-5-5---5------------7h9h10-9-----2-4---|
E||----------5-5----------------333-2-0-|---------5-5-7h9h10----------3-3-------|

 <-------------------2-----------------------|
G|-------------------------------------------|
D|-----4---------------------------------o---|
A|-5-5---5------------7h9h10-9-10-10-9-7-o---|
E|---------5-5-7h9h10------------------------|

INTRO(Refrain/chorus)
G|------------------------------|
D|------------------------------| x2
A|-5--5-5-----------------------|
E---------5--5-5--7--7-7--33-33-|

COUPLET/VERSE 1
                             <----------------1,2,3-----------------------------|
G||-------------------------------------|---------------------------------------|
D||o-----4------------------------------|-----4---------------------------------|
A||o-5-5---5----2/5h7/4-2-2-4-5---------|-5-5---5------------7h9h10-9-----2-4---|
E||----------5-5----------------333-2-0-|---------5-5-7h9h10----------3-3-------|

 <-------------------4------------------------------------------------------------|
G|--------------------------------------------------------------------------------| (on joue 4 fois, et on change ? la
D|-----4-7-------------------------------o----------------------------------------|  4e pour introduire le refrain)
A|-5-5----------------7h9h10-9-10-10-9-7-o|| (play 4 times, et change on the 4th--|
E|---------5-5-7h9h10-------------------------------------------------------------|  time just before the chorus)

REFRAIN/CHORUS
G|------------------------------|
D|------------------------------| x2
A|-5--5-5-----------------------|
E|--------5--5-5--7--7-7--33-33-|

[ Tab from: http://www.guitartabs.cc/tabs/h/hippos/so_lonely_btab_ver_2.html ]
COUPLET/VERSE 2
                             <----------------1,2,3-----------------------------|
G||-------------------------------------|---------------------------------------|
D||o-----4------------------------------|-----4---------------------------------|
A||o-5-5---5----2/5h7/4-2-2-4-5---------|-5-5---5------------7h9h10-9-----2-4---|
E||----------5-5----------------333-2-0-|---------5-5-7h9h10----------3-3-------|

 <-------------------4-----------------------|
G|-------------------------------------------|
D|-----4-7-------------------------------o---|
A|-5-5----------------7h9h10-9-10-10-9-7-o---|
E|---------5-5-7h9h10------------------------|

REFRAIN(x2)
G|------------------------------|
D|------------------------------| x4
A|-5--5-5-----------------------|
E|--------5--5-5--7--7-7--33-33-|

BREAK(comme/like INTRO)
                            <------------------1--------------------------------|
G||-------------------------------------|---------------------------------------|
D||o-----4------------------------------|-----4---------------------------------|
A||o-5-5---5----2/5h7\4-2-2-4-5---------|-5-5---5------------7h9h10-9-----2-4---|
E||----------5-5----------------333-2-0-|---------5-5-7h9h10----------3-3-------|

 <-------------------2-----------------------|
G|-------------------------------------------|
D|-----4---------------------------------o---|
A|-5-5---5------------7h9h10-9-10-10-9-7-o---|
E|---------5-5-7h9h10------------------------|

REFRAIN
G|------------------------------|
D|------------------------------| x2
A|-5--5-5-----------------------|
E|--------5--5-5--7--7-7--33-33-|

REFRAIN(plus agressif/more "powerfull")(j'suis pas sur de la fin/I'am not sur for this...)
     5x8     7x8      9x8    5x8	    5x8    7x8    9x3 11x3 12x3  11x3 9x3 5x3
G|----------------------------------|---------------------------------------------|
D|---------777777779999999955555555-|---------77777777999111111121212111111999555-|
A|-55555555-------------------------|-55555555------------------------------------|
E|----------------------------------|---------------------------------------------|

SOLO(Refrain modifi? leger/Chorus a little bit different)
G|-------------------------------|---------------------------------------|
D|-------------------------------|---------------------------------------|
A|-5--5-5------------------------|-5--5-5--------------------------------|
E|--------5--5-5--7--7-7--3--3-3-|--------5--5-5--7-7--9-9-10--5-5-3-2-0-|

G|------------------------------|
D|------------------------------| x2
A|-5--5-5-----------------------|
E|--------5--5-5--7--7-7~--3--3-|

CONCLUSION/OUTRO
G||-------------------------------------|-------------------------------------|
D||o-----4------------------------------|-----4-------------------------------| (to the end)
A||o-5-5---5----2/5h7\4-2-2-4-5---------|-5-5---5------------7h9h10-9-----2-4-|
E||----------5-5----------------333-2-0-|---------5-5-7h9h10----------3-3-----|
Comments