Hippos - Pollution Chords & Tabs

 

Pollution Chords & Tabs

Hippos Chords & Tabs

Version: 1 Type: Tab 0 ratings
1 star 2 stars 3 stars 4 stars 5 stars
comments

Pollution Tab

   
POLLUTION - The Hippos


By: Justin A. (stupidskakid145@icqmail.com)

Intro
      G  G  D  C
e|----3--3--2--0----|
B|----3--3--3--1----|
G|----0--0--2--0----|
D|----0--0--0--2----|
A|----2--2-----3----|
E|----3--3----------|


Slidy Keyboard Part (questionable)
e|---------------------------------------|
B|---------------------------------------|
G|---------------------------------------|
D|----5/7\5/9\5/7\5----5/7\5/12\5/7\5----|
A|---------------------------------------|
E|---------------------------------------|

Guitar Riff
e|--------------------------------|
B|--------------------------------|
G|--------------------------------|
D|-----5-4-7-9-5-4-7-9-5-4-7-5----|
A|--------------------------------|
E|--------------------------------|

Verse (tab looks slower for rythm's sake)
    GG GG G     D  C
e|----------------------|
B|----------------------|
G|----------------------|
D|--------------7--5----|
A|--55-55-5-----5--3----|
E|--33-33-3-------------|
Why do you treat me oh so badly oh so cruel...
[ Tab from: http://www.guitartabs.cc/tabs/h/hippos/pollution_tab.html ]
pre-chorus  do whatever you want w/ these chords (palm mute, arpeggiate... etc)
      E E E E F F F F G G G G G G G G
e|----0-0-0-0-1-1-1-1-3-3-3-3-3-3-3-3----|----|
B|----0-0-0-0-1-1-1-1-3-3-3-3-3-3-3-3----|----|
G|----1-1-1-1-2-2-2-2-4-4-4-4-4-4-4-4----|-12-|
D|----2-2-2-2-3-3-3-3-5-5-5-5-5-5-5-5----|----|
A|----2-2-2-2-3-3-3-3-5-5-5-5-5-5-5-5----|-10-|
E|----0-0-0-0-1-1-1-1-3-3-3-3-3-3-3-3----|----|
Now I can't live without you...

chorus

G G C D, like the verse, but constant strumming. at the end of chorus, 
palm mute C then D.

Verse
Chorus

interlude (big question mark on this part, i tried to follow what the bass was doin.)

starts after the p.m. C then D of the chorus
good luck w/ the rythm... play along w/ the song, youll get it.
also, some chords might be minor... if they are, then... umm.. make em that way.
e|------------------------3--8--7--5--3--3--5--6---------|
B|------------------------3-10--9--7--5--5--5--6---------|
G|----9--7--5--2----------4-10--9--7--5--5--6--7---------|
D|------------(7)-once,---5-10--9--7--5--5--7--8---------|
A|----7--5--3--0-----then-5--8--7--5--3--3--7--8--twice--|
E|------------(5)---------3-----------------5--6---------|

intro
verse *broken up a little, pay attention the cd*
chorus
end on open G
e|--3----3--|
B|--3-or-0--|
G|--0----0--|
D|--0----0--|
A|--2----2--|
E|--3----3--|

questions, comments, email to the address next to my name.
Comments