Hippos - Lost It Chords & Tabs

 

Lost It Chords & Tabs

Hippos Chords & Tabs

Version: 1 Type: Tab 0 ratings
1 star 2 stars 3 stars 4 stars 5 stars
comments

Lost It Tab

Author/Artist: The Hippos
Title: "Lost It"
Album: Heads Are Gonna Roll
Transcribed by: Eddie Torrez
Email: swankbastard@hotmail.com

Well this is it, my friend and I did it and hope you have fun!this is a cool song!!

INTRO:

-5--x-x-4-4-x-x--5-5-x-x--5-5-x-x--4-4-x-x-5-5-x-x-7-7-7-7-7-7----------------
-5--x-x-6-6-x-x--7-7-x-x--5-5-x-x--6-6-x-x-7-7-x-x-7-7-7-7-7-7----------------
-6--x-x-6-6-x-x--7-7-x-x--6-6-x-x--6-6-x-x-7-7-x-x-8-8-8-8-8-8----------------
-7--x-x-6-6-x-x--7-7-x-x--7-7-x-x--6-6-x-x-7-7-x-x-9-9-9-9-9-9----------------
-7--x-x-4-4-x-x--5-5-x-x--7-7-x-x--4-4-x-x-5-5-x-x-9-9-9-9-9-9----------------
-5--x-x-----x-x------x-x--5-5-x-x------x-x-----x-x-7-7-7-7-7-7----------------
                                                               


--5-5-5-5-7-7-7-7-4-4-4-4-5-5-5-5-7-7-7-7-7-7-7-7-5-5-5-5-5-5-5-5-----------------|
--5-5-5-5-7-7-7-7-6-6-6-6-7-7-7-7-9-9-9-9-9-9-9-9-7-7-7-7-7-7-7-7-----------------|
--6-6-6-6-8-8-8-8-6-6-6-6-7-7-7-7-9-9-9-9-9-9-9-9-7-7-7-7-7-7-7-7-----------------|
--7-7-7-7-9-9-9-9-6-6-6-6-7-7-7-7-9-9-9-9-9-9-9-9-7-7-7-7-7-7-7-7---------------x2|
--7-7-7-7-9-9-9-9-4-4-4-4-5-5-5-5-7-7-7-7-7-7-7-7-5-5-5-5-5-5-5-5-----------------|
--5-5-5-5-7-7-7-7-----------------------------------------------------------------|
     


Verse 1:

  Can you see what i am seeing

--5-5-x-5-5-x-5-5-x-4/5\4/5----------------5--x-x--4-4-x-x--5-5-x-x-5-5-|
--5-5-x-5-5-x-5-5-x-4/5\4/5----------------5--x-x--6-6-x-x--7-7-x-x-5-5-|
--6-6-x-6-6-x-6-6-x-5/6\5/6----------------6--x-x--6-6-x-x--7-7-x-x-6-6-|
--7-7-x-7-7-x-7-7-x-6/7\6/7----------------7--x-x--6-6-x-x--7-7-x-x-7-7-|
-------------------------------------------7--x-x--4-4-x-x--5-5-x-x-7-7-|
-------------------------------------------5-----------x-x------x-x-5-5-|
 |upstrokes|                          |downstrokes|   

  Now that I am on my own                      

--5-5-x-5-5-x-5-5-x-4/5\4/5----------------5--x-x--4-4-x-x--5-5-x-x-----|
--5-5-x-5-5-x-5-5-x-4/5\4/5----------------5--x-x--6-6-x-x--7-7-x-x-----|
--6-6-x-6-6-x-6-6-x-5/6\5/6----------------6--x-x--6-6-x-x--7-7-x-x-----| 
--7-7-x-7-7-x-7-7-x-6/7\6/7----------------7--x-x--6-6-x-x--7-7-x-x-----|
-------------------------------------------7--x-x--4-4-x-x--5-5-x-x-----|
-------------------------------------------5-----------x-x------x-x-----|
 |upstrokes|                          |downstrokes|                |Drum Fill|         


I can't explain the way I'm feeling

--5-5-x-4-4-4-4--5-5----------|
--5-5-x-6-6-6-6--7-7----------|
--6-6-x-6-6-6-6--7-7-------x2-|
--7-7-x-6-6-6-6--7-7----------|
--7-7-x-4-4-4-4--5-5----------|
--5-5-------------------------|
   
Question everything I know

-5\--------------------------------------5--x-x--4-4-x-x--5-5-x-x-5-5-|
-5\--------------------------------------5--x-x--6-6-x-x--7-7-x-x-5-5-|
-6\--------------------------------------6--x-x--6-6-x-x--7-7-x-x-6-6-|
-7\--------------------------------------7--x-x--6-6-x-x--7-7-x-x-7-7-|
-7\--------------------------------------7--x-x--4-4-x-x--5-5-x-x-7-7-|
-5\--------------------------------------5-----------x-x------x-x-5-5-|
         |rest|                          |downstrokes|   


Bridge:


I can't believe what she said it went straight to my head
[ Tab from: http://www.guitartabs.cc/tabs/h/hippos/lost_it_tab.html ]
-----------------------------------------------------
-----------------------------------------------------
-----------------------------------------------------
-----------------------------------------------------
-8---8-8-6-5--------------8---8-8-6-5----------------
-------------5---5-5-5-5--------------5---5-5-5-5----

I'm lacking inspiration.. where's my inspiration   (my inspiration)

-----------------------------------------------------
-----------------------------------------------------
-----------------------------------------------------
-----------------------------------------------------
-8---8-8-6-5-----------------------------------------
-------------5---5-5-5-5-7-7-7-7-7-7-7-7-------------


Chorus:

I had it, and I lost it, now you gotta help me get it back again

--5-5-5-5-7-7-7-7-4-4-4-4-5-5-5-5-7-7-7-7-7-7-7-7------------------|
--5-5-5-5-7-7-7-7-6-6-6-6-7-7-7-7-9-9-9-9-9-9-9-9------------------|
--6-6-6-6-8-8-8-8-6-6-6-6-7-7-7-7-9-9-9-9-9-9-9-9------------------|
--7-7-7-7-9-9-9-9-6-6-6-6-7-7-7-7-9-9-9-9-9-9-9-9----------------x2|
--7-7-7-7-9-9-9-9-4-4-4-4-5-5-5-5-7-7-7-7-7-7-7-7------------------|
--5-5-5-5-7-7-7-7--------------------------------------------------|


Verse 2:

I can't believe waht she says to me
It brings me closer to insanity
Why can't she just understand
The things she says could kill a man


Repeat Bridge

Repeat Chorus

Breakdown:

-4-4-4-4-5-5-5-5-5-5-5-5-5-5-5-5--4-4-4-4-5-5-5-5-5-5-5-5-5-5-5-5-
-6-6-6-6-7-7-7-7-5-5-5-5-5-5-5-5--6-6-6-6-7-7-7-7-5-5-5-5-5-5-5-5-
-6-6-6-6-7-7-7-7-6-6-6-6-6-6-6-6--6-6-6-6-7-7-7-7-6-6-6-6-6-6-6-6-
-6-6-6-6-7-7-7-7-7-7-7-7-7-7-7-7--6-6-6-6-7-7-7-7-7-7-7-7-7-7-7-7-
-4-4-4-4-5-5-5-5------------------4-4-4-4-5-5-5-5-----------------
------------------------------------------------------------------
                                      
I can't take it, I'll never make it, the things she says are bringing me down

-4-4-4-4-5-5-5-5-5-5-5-5-2-2-2-2--4-4-4-4-5-5-5-5-5---------------
-6-6-6-6-7-7-7-7-5-5-5-5-2-2-2-2--6-6-6-6-7-7-7-7-5---------------
-6-6-6-6-7-7-7-7-6-6-6-6-3-3-3-3--6-6-6-6-7-7-7-7-6---------------
-6-6-6-6-7-7-7-7-7-7-7-7-4-4-4-4--6-6-6-6-7-7-7-7-7---------------
-4-4-4-4-5-5-5-5------------------4-4-4-4-5-5-5-5-7---------------
--------------------------------------------------5---------------
					 	  |let ring|


-5--x-x-7-7-x-x-4-4-x-x--5-5-x-x-7-7-7-7-7-7-7-7-5-5-5-5-5-5-5-5--------|
-5--x-x-7-7-x-x-6-6-x-x--7-7-x-x-9-9-9-9-9-9-9-9-7-7-7-7-7-7-7-7--------|
-6--x-x-8-8-x-x-6-6-x-x--7-7-x-x-9-9-9-9-9-9-9-9-7-7-7-7-7-7-7-7------x2|
-7--x-x-9-9-x-x-6-6-x-x--7-7-x-x-9-9-9-9-9-9-9-9-7-7-7-7-7-7-7-7--------|
-7--x-x-9-9-x-x-4-4-x-x--5-5-x-x-7-7-7-7-7-7-7-7-5-5-5-5-5-5-5-5--------|
-5--x-x-7-7-x-x-----x-x------x-x----------------------------------------|
                                                                 Repeat Chorus


Closing:

-5--x-x-4-4-x-x--5-5-x-x--5-5-x-x--
-5--x-x-6-6-x-x--7-7-x-x--5-5-x-x--
-6--x-x-6-6-x-x--7-7-x-x--6-6-x-x--
-7--x-x-6-6-x-x--7-7-x-x--7-7-x-x--
-7--x-x-4-4-x-x--5-5-x-x--7-7-x-x--
-5--x-x-----x-x------x-x--5-5-x-x--


-5--x-x-4-4-x-x--5-5-x-x--5-5-x-x--4-4-x-x-5-5-x-x-7-7-7-7-7-7--5--------------
-5--x-x-6-6-x-x--7-7-x-x--5-5-x-x--6-6-x-x-7-7-x-x-7-7-7-7-7-7--5--------------
-6--x-x-6-6-x-x--7-7-x-x--6-6-x-x--6-6-x-x-7-7-x-x-8-8-8-8-8-8--6--------------
-7--x-x-6-6-x-x--7-7-x-x--7-7-x-x--6-6-x-x-7-7-x-x-9-9-9-9-9-9--7--------------
-7--x-x-4-4-x-x--5-5-x-x--7-7-x-x--4-4-x-x-5-5-x-x-9-9-9-9-9-9--7--------------
-5--x-x-----x-x------x-x--5-5-x-x------x-x-----x-x-7-7-7-7-7-7--5--------------
                                       |strum fast|
Comments