Hinder - Lips Of An Angle Chords & Tabs

 

Lips Of An Angle Chords & Tabs

Hinder Chords & Tabs

Version: 1 Type: Tab 0 ratings
1 star 2 stars 3 stars 4 stars 5 stars
comments

Lips Of An Angle Tab

Dropped D Tuning

INTRO:
e|----x---------|------------------|------------------|------------------|
b|----x----3----|------------------|------------------|----------3-------|
A|----2---2-2-2-|----4---3---------|----------7-------|-----------2-2----|
D|----2------2--|----4--4-4-4------|----7------7--7---|----0-------0-----|
A|----0---------|----2-----4-------|----5-------5-----|----0-------------|
D|--------------|------------------|----5---5---------|----0---0---------|


e|----x---------|------------------|------------------|------------------|
b|----x----3----|------------------|------------------|----------3-------|
A|----2---2-2-2-|----4---3---------|----------7-------|-----------2-2----|
D|----2------2--|----4--4-4-4------|----7------7--7---|----0-------0-----|
A|----0---------|----2-----4-------|----5-------5-----|----0-------------|
D|--------------|------------------|----5---5---------|----0---0---------|

         
e|----x---------|------------------|------------------|------------------|
b|----x----3----|------------------|------------------|----------3-------|
A|----2---2-2-2-|----4---3---------|----------7-------|-----------2-2----|
D|----2------2--|----4--4-4-4------|----7------7--7---|----0-------0-----|
A|----0---------|----2-----4-------|----5-------5-----|----0-------------|
D|--------------|------------------|----5---5---------|----0---0---------|

        
e|----x---------|------------------|------------------|------------------|
b|----x----3----|------------------|------------------|----------3-------|
A|----2---2-2-2-|----4---3---------|----------7-------|-----------2-2----|
D|----2------2--|----4--4-4-4------|----7------7--7---|----0-------0-----|
A|----0---------|----2-----4-------|----5-------5-----|----0-------------|
D|--------------|------------------|----5---5---------|----0---0---------|

         
e|----x---------|------------------|------------------|------------------|
b|----x----3----|------------------|------------------|----------3-------|
A|----2---2-2-2-|----4---3---------|----------7-------|-----------2-2----|
D|----2------2--|----4--4-4-4------|----7------7--7---|----0-------0-----|
A|----0---------|----2-----4-------|----5-------5-----|----0-------------|
D|--------------|------------------|----5---5---------|----0---0---------|

         
e|--------------|--------------|--------------|--------------|
b|----3----3----|--------------|----3----3----|--------------|
A|----2----2----|----2----2----|----4----4----|----7----7----|
D|----0----0----|----2----2----|----4----4----|----7----7----|
A|----0----0----|----0----0----|----2----2----|----5----5----|
D|----0----0----|--------------|--------------|----5----5----|

         
e|--------------|--------------|--------------|--------------|
b|----3----3----|--------------|----3----3----|--------------|
A|----2----2----|----2----2----|----4----4----|----7----7----|
D|----0----0----|----2----2----|----4----4----|----7----7----|
A|----0----0----|----0----0----|----2----2----|----5----5----|
D|----0----0----|--------------|--------------|----5----5----|

         
e|--------------|--------------|--------------|--------------|
b|----3----3----|--------------|----3----3----|--------------|
A|----2----2----|----2----2----|----4----4----|----7----7----|
D|----0----0----|----2----2----|----4----4----|----7----7----|
A|----0----0----|----0----0----|----2----2----|----5----5----|
D|----0----0----|--------------|--------------|----5----5----|

CHORUS: 
e|--------------|--------------|--------------|--------------|
b|----3----3----|--------------|--------------|--------------|
A|----2----2----|----2----2----|---12---12----|----7----7----|
D|----0----0----|----2----2----|---12---12----|----7----7----|
A|----0----0----|----0----0----|---10---10----|----5----5----|
D|----0----0----|--------------|---10---10----|----5----5----|

        
e|--------------|--------------|--------------|--------------|
b|----3----3----|--------------|--------------|--------------|
A|----2----2----|----2----2----|---12---12----|----7----7----|
D|----0----0----|----2----2----|---12---12----|----7----7----|
A|----0----0----|----0----0----|---10---10----|----5----5----|
D|----0----0----|--------------|---10---10----|----5----5----|

       
e|--------------|--------------|--------------|--------------|
b|----3----3----|--------------|----3----3----|--------------|
A|----2----2----|----2----2----|----4----4----|----7----7----|
D|----0----0----|----2----2----|----4----4----|----7----7----|
A|----0----0----|----0----0----|----2----2----|----5----5----|
D|----0----0----|--------------|--------------|----5----5----|

        

[ Tab from: http://www.guitartabs.cc/tabs/h/hinder/lips_of_an_angle_tab.html ]
Verse 2: 
e|----x---------|------------------|------------------|------------------|
b|----x----3----|------------------|------------------|----------3-------|
A|----2---2-2-2-|----4---3---------|----------7-------|-----------2-2----|
D|----2------2--|----4--4-4-4------|----7------7--7---|----0-------0-----|
A|----0---------|----2-----4-------|----5-------5-----|----0-------------|
D|--------------|------------------|----5---5---------|----0---0---------|

         
e|----x---------|------------------|------------------|------------------|
b|----x----3----|------------------|------------------|----------3-------|
A|----2---2-2-2-|----4---3---------|----------7-------|-----------2-2----|
D|----2------2--|----4--4-4-4------|----7------7--7---|----0-------0-----|
A|----0---------|----2-----4-------|----5-------5-----|----0-------------|
D|--------------|------------------|----5---5---------|----0---0---------|

          
e|----x---------|------------------|------------------|------------------|
b|----x----3----|------------------|------------------|----------3-------|
A|----2---2-2-2-|----4---3---------|----------7-------|-----------2-2----|
D|----2------2--|----4--4-4-4------|----7------7--7---|----0-------0-----|
A|----0---------|----2-----4-------|----5-------5-----|----0-------------|
D|--------------|------------------|----5---5---------|----0---0---------|

e|----x---------|------------------|------------------|------------------|
b|----x----3----|------------------|------------------|----------3-------|
A|----2---2-2-2-|----4---3---------|----------7-------|-----------2-2----|
D|----2------2--|----4--4-4-4------|----7------7--7---|----0-------0-----|
A|----0---------|----2-----4-------|----5-------5-----|----0-------------|
D|--------------|------------------|----5---5---------|----0---0---------|

           
e|----x---------|------------------|------------------|------------------|
b|----x----3----|------------------|------------------|----------3-------|
A|----2---2-2-2-|----4---3---------|----------7-------|-----------2-2----|
D|----2------2--|----4--4-4-4------|----7------7--7---|----0-------0-----|
A|----0---------|----2-----4-------|----5-------5-----|----0-------------|
D|--------------|------------------|----5---5---------|----0---0---------|


         
e|--------------|--------------|--------------|--------------|
b|----3----3----|--------------|----3----3----|--------------|
A|----2----2----|----2----2----|----4----4----|----7----7----|
D|----0----0----|----2----2----|----4----4----|----7----7----|
A|----0----0----|----0----0----|----2----2----|----5----5----|
D|----0----0----|--------------|--------------|----5----5----|

         
e|--------------|--------------|--------------|--------------|
b|----3----3----|--------------|----3----3----|--------------|
A|----2----2----|----2----2----|----4----4----|----7----7----|
D|----0----0----|----2----2----|----4----4----|----7----7----|
A|----0----0----|----0----0----|----2----2----|----5----5----|
D|----0----0----|--------------|--------------|----5----5----|

          
e|--------------|--------------|--------------|--------------|
b|----3----3----|--------------|----3----3----|--------------|
A|----2----2----|----2----2----|----4----4----|----7----7----|
D|----0----0----|----2----2----|----4----4----|----7----7----|
A|----0----0----|----0----0----|----2----2----|----5----5----|
D|----0----0----|--------------|--------------|----5----5----|

CHORUS: 
e|--------------|--------------|--------------|--------------|
b|----3----3----|--------------|--------------|--------------|
A|----2----2----|----2----2----|---12---12----|----7----7----|
D|----0----0----|----2----2----|---12---12----|----7----7----|
A|----0----0----|----0----0----|---10---10----|----5----5----|
D|----0----0----|--------------|---10---10----|----5----5----|

        
e|--------------|--------------|--------------|--------------|
b|----3----3----|--------------|--------------|--------------|
A|----2----2----|----2----2----|---12---12----|----7----7----|
D|----0----0----|----2----2----|---12---12----|----7----7----|
A|----0----0----|----0----0----|---10---10----|----5----5----|
D|----0----0----|--------------|---10---10----|----5----5----|

        
e|--------------|--------------|--------------|--------------|
b|----3----3----|--------------|----3----3----|--------------|
A|----2----2----|----2----2----|----4----4----|----7----7----|
D|----0----0----|----2----2----|----4----4----|----7----7----|
A|----0----0----|----0----0----|----2----2----|----5----5----|
D|----0----0----|--------------|--------------|----5----5----|

        	
Chorus Again

Part of Verse 1 Again

Final Chorus

Comments